Hogyan játszd el gitáron a Mae – Anything dalt?

Mae Anything – GITÁR PRO TAB, KOTTA, AKKORDOK

Kotta típusa: Track 4

(Általában egy zeneszám minden kottája: gitár, szólógitár, basszusgitár, ének, zongora, dob stb. megtalálható az oldalon, de mindegyik egy külön bejegyzésben. Ha egy másik hangszer gitártabos kottáját keresed, akkor az oldal alján vagy a keresőben megtalálod. Sokszor a zenekar tagjának a neve lesz a kotta kategóriája.)

        


D#|---------|---------|---------|---------|---------|---------|---------|---------|
A#|---------|---------|---------|---------|---------|---------|---------|---------|
F#|-%-------|-%-------|-%-------|-%-------|-%-------|-%-------|-%-------|-%-------|
C#|-%-------|-%-------|-%-------|-%-------|-%-------|-%-------|-%-------|-%-------|
G#|---------|---------|---------|---------|---------|---------|---------|---------|
D#|---------|---------|---------|---------|---------|---------|---------|---------|


D#|---------|---------|---------|---------|---------|---------|---------|--------6-----------|
A#|---------|---------|---------|---------|---------|---------|---------|--------------7-----|
F#|-%-------|-%-------|-%-------|-%-------|-%-------|-%-------|-%-------|-%------------------|
C#|-%-------|-%-------|-%-------|-%-------|-%-------|-%-------|-%-------|-%------------------|
G#|---------|---------|---------|---------|---------|---------|---------|--------------------|
D#|---------|---------|---------|---------|---------|---------|---------|--------------------|


D#|---------|--------9-----11----|---------|--------6-----------|---------|--------9-----11----|
A#|---------|--------------------|---------|--------------7-----|---------|--------------------|
F#|-%-------|-%------------------|-%-------|-%------------------|-%-------|-%------------------|
C#|-%-------|-%------------------|-%-------|-%------------------|-%-------|-%------------------|
G#|---------|--------------------|---------|--------------------|---------|--------------------|
D#|---------|--------------------|---------|--------------------|---------|--------------------|


D#|---------|---------|---------|---------|---------|---------|---------|---------|
A#|---------|---------|---------|---------|---------|---------|---------|---------|
F#|-%-------|-%-------|-%-------|-%-------|-%-------|-%-------|-%-------|-%-------|
C#|-%-------|-%-------|-%-------|-%-------|-%-------|-%-------|-%-------|-%-------|
G#|---------|---------|---------|---------|---------|---------|---------|---------|
D#|---------|---------|---------|---------|---------|---------|---------|---------|


D#|---------|---------|---------|--------6-----------|---------|--------9-----11----|
A#|---------|---------|---------|--------------7-----|---------|--------------------|
F#|-%-------|-%-------|-%-------|-%------------------|-%-------|-%------------------|
C#|-%-------|-%-------|-%-------|-%------------------|-%-------|-%------------------|
G#|---------|---------|---------|--------------------|---------|--------------------|
D#|---------|---------|---------|--------------------|---------|--------------------|


D#|---------|--------6-----------|---------|--------9-----11----|---------|---------|
A#|---------|--------------7-----|---------|--------------------|---------|---------|
F#|-%-------|-%------------------|-%-------|-%------------------|-%-------|-%-------|
C#|-%-------|-%------------------|-%-------|-%------------------|-%-------|-%-------|
G#|---------|--------------------|---------|--------------------|---------|---------|
D#|---------|--------------------|---------|--------------------|---------|---------|


D#|---------|---------|---------|---------|---------|---------|---------|---------|
A#|---------|---------|---------|---------|---------|---------|---------|---------|
F#|-%-------|-%-------|-%-------|-%-------|-%-------|-%-------|-%-------|-%-------|
C#|-%-------|-%-------|-%-------|-%-------|-%-------|-%-------|-%-------|-%-------|
G#|---------|---------|---------|---------|---------|---------|---------|---------|
D#|---------|---------|---------|---------|---------|---------|---------|---------|


D#|---------|---------|---------|---------|---------|---------|---------|--------9-----11----|
A#|---------|---------|---------|---------|---------|---------|---------|--------------------|
F#|-%-------|-%-------|-%-------|-%-------|-%-------|-%-------|-%-------|-%------------------|
C#|-%-------|-%-------|-%-------|-%-------|-%-------|-%-------|-%-------|-%------------------|
G#|---------|---------|---------|---------|---------|---------|---------|--------------------|
D#|---------|---------|---------|---------|---------|---------|---------|--------------------|


D#|---------|--------6-----------|---------|--------9-----11----|---------|--------6-----------|
A#|---------|--------------7-----|---------|--------------------|---------|--------------7-----|
F#|-%-------|-%------------------|-%-------|-%------------------|-%-------|-%------------------|
C#|-%-------|-%------------------|-%-------|-%------------------|-%-------|-%------------------|
G#|---------|--------------------|---------|--------------------|---------|--------------------|
D#|---------|--------------------|---------|--------------------|---------|--------------------|


D#|---------|--------9-----11----|---------|---------|---------|---------|---------|
A#|---------|--------------------|---------|---------|---------|---------|---------|
F#|-%-------|-%------------------|-%-------|-%-------|-%-------|-%-------|-%-------|
C#|-%-------|-%------------------|-%-------|-%-------|-%-------|-%-------|-%-------|
G#|---------|--------------------|---------|---------|---------|---------|---------|
D#|---------|--------------------|---------|---------|---------|---------|---------|


D#|---------|---------|
A#|---------|---------|
F#|-%-------|-%-------|
C#|-%-------|-%-------|
G#|---------|---------|
D#|---------|---------|

    

Nézd meg a videót és ismerd meg a leggyorsabb utat, hogyan tanulhatod meg kedvenc számaid gitáron!