Hogyan játszd el gitáron a Maldita Vecindad – Kumbala dalt?

Maldita Vecindad Kumbala – GITÁR PRO TAB, KOTTA, AKKORDOK

Kotta típusa: Trompeta

(Általában egy zeneszám minden kottája: gitár, szólógitár, basszusgitár, ének, zongora, dob stb. megtalálható az oldalon, de mindegyik egy külön bejegyzésben. Ha egy másik hangszer gitártabos kottáját keresed, akkor az oldal alján vagy a keresőben megtalálod. Sokszor a zenekar tagjának a neve lesz a kotta kategóriája.)

        


E|------|---------|---------|---------|-------------3-----5-----|-7-------|-------------3-----5-----|
B|------|---------|---------|---------|-------------------------|---------|-------------------------|
G|-%----|-%-------|-%-------|-%-------|-%------%----0-----2-----|-4-------|-%------%----0-----2-----|
D|-%----|-%-------|-%-------|-%-------|-%------%----------------|---------|-%------%----------------|
A|------|---------|---------|---------|-------------------------|---------|-------------------------|
E|------|---------|---------|---------|-------------------------|---------|-------------------------|


E|-7-------|--------5------|-3------2------2----|-------------2-----3-----|-5-------|
B|---------|---------------|--------------------|-------------------------|---------|
G|-4-------|-%------2------|-0------------------|-%------%----------------|---------|
D|---------|-%-------------|--------4------4----|-%------%----4-----5-----|-7-------|
A|---------|---------------|--------------------|-------------------------|---------|
E|---------|---------------|--------------------|-------------------------|---------|


E|-------------2-----3-----|-5-------|--------3------|-2------------------|---------------|
B|-------------------------|---------|---------------|--------5------5----|-5-------------|
G|-%------%----------------|---------|-%-------------|--------------------|-------%-------|
D|-%------%----4-----5-----|-7-------|-%------5------|-4------2------2----|-2-----%-------|
A|-------------------------|---------|---------------|--------------------|---------------|
E|-------------------------|---------|---------------|--------------------|---------------|


E|---------|---------|---------|---------|---------|---------|---------|---------|---------|
B|---------|---------|---------|---------|---------|---------|---------|---------|---------|
G|-%-------|-%-------|-%-------|-%-------|-%-------|-%-------|-%-------|-%-------|-%-------|
D|-%-------|-%-------|-%-------|-%-------|-%-------|-%-------|-%-------|-%-------|-%-------|
A|---------|---------|---------|---------|---------|---------|---------|---------|---------|
E|---------|---------|---------|---------|---------|---------|---------|---------|---------|


E|---------|---------|---------|---------|---------|---------|---------|---------|---------|
B|---------|---------|---------|---------|---------|---------|---------|---------|---------|
G|-%-------|-%-------|-%-------|-%-------|-%-------|-%-------|-%-------|-%-------|-%-------|
D|-%-------|-%-------|-%-------|-%-------|-%-------|-%-------|-%-------|-%-------|-%-------|
A|---------|---------|---------|---------|---------|---------|---------|---------|---------|
E|---------|---------|---------|---------|---------|---------|---------|---------|---------|


E|---------|---------|---------|---------|---------|---------|---------|---------|---------|
B|---------|---------|---------|---------|---------|---------|---------|---------|---------|
G|-%-------|-%-------|-%-------|-%-------|-%-------|-%-------|-%-------|-%-------|-%-------|
D|-%-------|-%-------|-%-------|-%-------|-%-------|-%-------|-%-------|-%-------|-%-------|
A|---------|---------|---------|---------|---------|---------|---------|---------|---------|
E|---------|---------|---------|---------|---------|---------|---------|---------|---------|


E|---------|---------|---------|---------|---------|---------|---------|---------|---------|
B|---------|---------|---------|---------|---------|---------|---------|---------|---------|
G|-%-------|-%-------|-%-------|-%-------|-%-------|-%-------|-%-------|-%-------|-%-------|
D|-%-------|-%-------|-%-------|-%-------|-%-------|-%-------|-%-------|-%-------|-%-------|
A|---------|---------|---------|---------|---------|---------|---------|---------|---------|
E|---------|---------|---------|---------|---------|---------|---------|---------|---------|


E|---------|---------|---------|---------|---------|---------|---------|---------|---------|
B|---------|---------|---------|---------|---------|---------|---------|---------|---------|
G|-%-------|-%-------|-%-------|-%-------|-%-------|-%-------|-%-------|-%-------|-%-------|
D|-%-------|-%-------|-%-------|-%-------|-%-------|-%-------|-%-------|-%-------|-%-------|
A|---------|---------|---------|---------|---------|---------|---------|---------|---------|
E|---------|---------|---------|---------|---------|---------|---------|---------|---------|


E|---------|---------|---------|---------|---------|---------|---------|---------|---------|
B|---------|---------|---------|---------|---------|---------|---------|---------|---------|
G|-%-------|-%-------|-%-------|-%-------|-%-------|-%-------|-%-------|-%-------|-%-------|
D|-%-------|-%-------|-%-------|-%-------|-%-------|-%-------|-%-------|-%-------|-%-------|
A|---------|---------|---------|---------|---------|---------|---------|---------|---------|
E|---------|---------|---------|---------|---------|---------|---------|---------|---------|


E|---------|---------|---------|---------|---------|---------|---------|---------|---------|
B|---------|---------|---------|---------|---------|---------|---------|---------|---------|
G|-%-------|-%-------|-%-------|-%-------|-%-------|-%-------|-%-------|-%-------|-%-------|
D|-%-------|-%-------|-%-------|-%-------|-%-------|-%-------|-%-------|-%-------|-%-------|
A|---------|---------|---------|---------|---------|---------|---------|---------|---------|
E|---------|---------|---------|---------|---------|---------|---------|---------|---------|


E|---------|---------|---------|---------|---------|---------|---------|---------|---------|
B|---------|---------|---------|---------|---------|---------|---------|---------|---------|
G|-%-------|-%-------|-%-------|-%-------|-%-------|-%-------|-%-------|-%-------|-%-------|
D|-%-------|-%-------|-%-------|-%-------|-%-------|-%-------|-%-------|-%-------|-%-------|
A|---------|---------|---------|---------|---------|---------|---------|---------|---------|
E|---------|---------|---------|---------|---------|---------|---------|---------|---------|


E|---------|---------|---------|---------|---------|---------|---------|---------|---------|
B|---------|---------|---------|---------|---------|---------|---------|---------|---------|
G|-%-------|-%-------|-%-------|-%-------|-%-------|-%-------|-%-------|-%-------|-%-------|
D|-%-------|-%-------|-%-------|-%-------|-%-------|-%-------|-%-------|-%-------|-%-------|
A|---------|---------|---------|---------|---------|---------|---------|---------|---------|
E|---------|---------|---------|---------|---------|---------|---------|---------|---------|


E|---------|---------|---------|---------|---------|---------|---------|---------|-------------3-----5-----|
B|---------|---------|---------|---------|---------|---------|---------|---------|-------------------------|
G|-%-------|-%-------|-%-------|-%-------|-%-------|-%-------|-%-------|-%-------|-%------%----0-----2-----|
D|-%-------|-%-------|-%-------|-%-------|-%-------|-%-------|-%-------|-%-------|-%------%----------------|
A|---------|---------|---------|---------|---------|---------|---------|---------|-------------------------|
E|---------|---------|---------|---------|---------|---------|---------|---------|-------------------------|


E|-7-------|-------------3-----5-----|-7-------|--------5------|-3------2------2----|
B|---------|-------------------------|---------|---------------|--------------------|
G|-4-------|-%------%----0-----2-----|-4-------|-%------2------|-0------------------|
D|---------|-%------%----------------|---------|-%-------------|--------4------4----|
A|---------|-------------------------|---------|---------------|--------------------|
E|---------|-------------------------|---------|---------------|--------------------|


E|-------------2-----3-----|-5-------|-------------2-----3-----|-5-------|--------3------|
B|-------------------------|---------|-------------------------|---------|---------------|
G|-%------%----------------|---------|-%------%----------------|---------|-%-------------|
D|-%------%----4-----5-----|-7-------|-%------%----4-----5-----|-7-------|-%------5------|
A|-------------------------|---------|-------------------------|---------|---------------|
E|-------------------------|---------|-------------------------|---------|---------------|


E|-2------------------|---------|---------|---------|---------|---------|---------|
B|--------5------5----|-5-------|-5-------|-5-------|---------|---------|---------|
G|--------------------|---------|---------|---------|-%-------|-%-------|-%-------|
D|-4------2------2----|-2-------|-2-------|-2-------|-%-------|-%-------|-%-------|
A|--------------------|---------|---------|---------|---------|---------|---------|
E|--------------------|---------|---------|---------|---------|---------|---------|


E|---------|---------|---------|---------|---------|---------|---------|---------|---------|
B|---------|---------|---------|---------|---------|---------|---------|---------|---------|
G|-%-------|-%-------|-%-------|-%-------|-%-------|-%-------|-%-------|-%-------|-%-------|
D|-%-------|-%-------|-%-------|-%-------|-%-------|-%-------|-%-------|-%-------|-%-------|
A|---------|---------|---------|---------|---------|---------|---------|---------|---------|
E|---------|---------|---------|---------|---------|---------|---------|---------|---------|


E|---------|---------|---------|
B|---------|---------|---------|
G|-%-------|-%-------|-%-------|
D|-%-------|-%-------|-%-------|
A|---------|---------|---------|
E|---------|---------|---------|

    

Nézd meg a videót és ismerd meg a leggyorsabb utat, hogyan tanulhatod meg kedvenc számaid gitáron!