Hogyan játszd el gitáron a METALLICA – 2 X 4 dalt?

METALLICA 2 X 4 – GITÁR PRO TAB, KOTTA, AKKORDOK

Kotta típusa: Bass

(Általában egy zeneszám minden kottája: gitár, szólógitár, basszusgitár, ének, zongora, dob stb. megtalálható az oldalon, de mindegyik egy külön bejegyzésben. Ha egy másik hangszer gitártabos kottáját keresed, akkor az oldal alján vagy a keresőben megtalálod. Sokszor a zenekar tagjának a neve lesz a kotta kategóriája.)

        


F#|---------|---------|--------------------------|---------------------------------------------------|
C#|-%-------|-%-------|--------------------------|---------------------------------------------------|
G#|-%-------|-%-------|--------------------------|---------------------------------------------------|
D#|---------|---------|-0----0----3----5----6----|-6----0----3----5----6----6----0----3----5----0----|


F#|---------------------------------------------------|---------------------------------------------------|
C#|---------------------------------------------------|---------------------------------------------------|
G#|---------------------------------------------------|---------------------------------------------------|
D#|-0----0----3----5----0----0----0----3----5----6----|-6----0----3----5----6----6----0----3----5----0----|


F#|---------------------------------------------------|---------------------------------------------------|
C#|---------------------------------------------------|---------------------------------------------------|
G#|---------------------------------------------------|---------------------------------------------------|
D#|-0----0----3----5----0----0----0----3----5----6----|-6----0----3----5----6----6----0----3----5----0----|


F#|---------------------------------------------------|---------------------------------------------------|
C#|---------------------------------------------------|---------------------------------------------------|
G#|---------------------------------------------------|---------------------------------------------------|
D#|-0----0----3----5----0----0----0----3----5----6----|-6----0----3----5----6----6----0----3----5----0----|


F#|--------------------------------------------------------|-----------------------------------------|
C#|--------------------------------------------------------|-----------------------------------------|
G#|--------------------------------------------------------|-----------------------------------------|
D#|-0----0----3----5----0----0----0----0----0----0----0----|-0----0----0----0----0----0----0----0----|


F#|----------------------------------------------|-----------------------------------------|
C#|----------------------------------------------|-----------------------------------------|
G#|----------------------------------------------|-----------------------------------------|
D#|-0----0----0----0----0----0----3----5----3----|-0----0----0----0----0----0----0----0----|


F#|---------------------------------------------------|-----------------------------------------|
C#|---------------------------------------------------|-------------------------------%---------|
G#|---------------------------------------------------|-------------------------------%---------|
D#|-0----0----0----0----0----0----0----3----5----3----|-0----0----3----0----5----0---------6----|


F#|---------------------------------|-----------------------------------------|---------------------------------|
C#|---------------------------------|-------------------------------%---------|---------------------------------|
G#|---------------------------------|-------------------------------%---------|---------------------------------|
D#|-5----3-----6----5----3-----0----|-0----0----3----0----5----0---------6----|-5----3-----6----5----3-----0----|


F#|-----------------------------------------|---------------------------------|-----------------------------------------|
C#|-------------------------------%---------|---------------------------------|-------------------------------%---------|
G#|-------------------------------%---------|---------------------------------|-------------------------------%---------|
D#|-0----0----3----0----5----0---------6----|-5----3-----6----5----3-----0----|-0----0----3----0----5----0---------6----|


F#|---------------------------------|-----------------------------------------|----------------------------------------------|
C#|---------------------------------|-----------------------------------------|----------------------------------------------|
G#|---------------------------------|-----------------------------------------|----------------------------------------------|
D#|-5----3-----6----5----3-----0----|-0----0----0----0----0----0----0----0----|-0----0----0----0----0----0----3----5----3----|


F#|-----------------------------------------|----------------------------------------------|
C#|-----------------------------------------|----------------------------------------------|
G#|-----------------------------------------|----------------------------------------------|
D#|-0----0----0----0----0----0----0----0----|-0----0----0----0----0----0----3----5----3----|


F#|-----------------------------------------|---------------------------------|-----------------------------------------|
C#|-------------------------------%---------|---------------------------------|-------------------------------%---------|
G#|-------------------------------%---------|---------------------------------|-------------------------------%---------|
D#|-0----0----3----0----5----0---------6----|-5----3-----6----5----3-----0----|-0----0----3----0----5----0---------6----|


F#|---------------------------------|-----------------------------------------|---------------------------------|
C#|---------------------------------|-------------------------------%---------|---------------------------------|
G#|---------------------------------|-------------------------------%---------|---------------------------------|
D#|-5----3-----6----5----3-----0----|-0----0----3----0----5----0---------6----|-5----3-----6----5----3-----0----|


F#|-----------------------------------------|---------------------------------|--------------------------|
C#|-------------------------------%---------|---------------------------------|--------------------------|
G#|-------------------------------%---------|---------------------------------|--------------------------|
D#|-0----0----3----0----5----0---------6----|-5----3-----6----5----3-----0----|-0----0----3----5----6----|


F#|------------------------------------------|-------------------------------------------------------------|
C#|------------------------------------------|-------------------------------------------------------------|
G#|------------------------------------------|-------------------------------------------------------------|
D#|-6----6----6-----6----0----3----5----0----|-0----0----0----0----0----0----0----0----3----3----5----6----|


F#|----------------------------------------------|------------------------------------------|
C#|----------------------------------------------|------------------------------------------|
G#|----------------------------------------------|------------------------------------------|
D#|-6----6----6----6----6----0----3----5----0----|-0----0----0-----0----0----3----5----6----|


F#|-----------------------------------------------|-----------------------------------------------|
C#|-----------------------------------------------|-----------------------------------------------|
G#|-----------------------------------------------|-----------------------------------------------|
D#|-6----6----6----6-----6----0----3----5----0----|-0----0----0----0-----0----0----3----5----6----|


F#|---------------------------------------------------|---------------------------------------------------|
C#|---------------------------------------------------|---------------------------------------------------|
G#|---------------------------------------------------|---------------------------------------------------|
D#|-6----0----3----5----6----6----0----3----5----0----|-0----0----3----5----0----0----0----3----5----6----|


F#|---------------------------------------------------|---------------------------------------------------|
C#|---------------------------------------------------|---------------------------------------------------|
G#|---------------------------------------------------|---------------------------------------------------|
D#|-6----0----3----5----6----6----0----3----5----0----|-0----0----3----5----0----0----0----0----0----0----|


F#|-------------------------------------|---------------------------------|---------------------------------|
C#|-------------------------------------|---------------------------------|---------------------------------|
G#|-------------------------------------|---------------------------------|---------------------------------|
D#|-0----0----0-----0----0----3----3----|-3-----3-----3----3----5----5----|-5-----5-----5----5----3----0----|


F#|--------------------------------------|---------------------------------------------------|
C#|--------------------------------------|---------------------------------------------------|
G#|--------------------------------------|---------------------------------------------------|
D#|-3-----3-----3----0----3----5----6----|-6----0----3----5----6----6----0----3----5----0----|


F#|---------------------------------------------------|---------------------------------------------------|
C#|---------------------------------------------------|---------------------------------------------------|
G#|---------------------------------------------------|---------------------------------------------------|
D#|-0----0----3----5----0----0----0----3----5----6----|-6----0----3----5----6----6----0----3----5----0----|


F#|--------------------------------------------------------|-----------------------------------------|
C#|--------------------------------------------------------|-----------------------------------------|
G#|--------------------------------------------------------|-----------------------------------------|
D#|-0----0----3----5----0----0----0----0----0----0----0----|-0----0----0----0----0----0----0----0----|


F#|----------------------------------------------|-----------------------------------------|
C#|----------------------------------------------|-----------------------------------------|
G#|----------------------------------------------|-----------------------------------------|
D#|-0----0----0----0----0----0----3----5----3----|-0----0----0----0----0----0----0----0----|


F#|--------------------------------------------------------|-----------------------------------------|
C#|--------------------------------------------------------|-------------------------------%---------|
G#|--------------------------------------------------------|-------------------------------%---------|
D#|-0----0----1----1----1----0----0----0----3----5----3----|-0----0----3----0----5----0---------6----|


F#|---------------------------------|-----------------------------------------|---------------------------------|
C#|---------------------------------|-------------------------------%---------|---------------------------------|
G#|---------------------------------|-------------------------------%---------|---------------------------------|
D#|-5----3-----6----5----3-----0----|-0----0----3----0----5----0---------6----|-5----3-----6----5----3-----0----|


F#|-----------------------------------------|---------------------------------|-----------------------------------------|
C#|-------------------------------%---------|---------------------------------|-------------------------------%---------|
G#|-------------------------------%---------|---------------------------------|-------------------------------%---------|
D#|-0----0----3----0----5----0---------6----|-5----3-----6----5----3-----0----|-0----0----3----0----5----0---------6----|


F#|---------------------------------|--------------------------|------------------------------------------|
C#|---------------------------------|--------------------------|------------------------------------------|
G#|---------------------------------|--------------------------|------------------------------------------|
D#|-5----3-----6----5----3-----0----|-0----0----3----5----6----|-6----6----6-----6----0----3----5----0----|


F#|-------------------------------------------------------------|----------------------------------------------|
C#|-------------------------------------------------------------|----------------------------------------------|
G#|-------------------------------------------------------------|----------------------------------------------|
D#|-0----0----0----0----0----0----0----0----3----3----5----6----|-6----6----6----6----6----0----3----5----0----|


F#|------------------------------------------|-----------------------------------------------|
C#|------------------------------------------|-----------------------------------------------|
G#|------------------------------------------|-----------------------------------------------|
D#|-0----0----0-----0----0----3----5----6----|-6----6----6----6-----6----0----3----5----0----|


F#|-----------------------------------------------|---------------------------------------------------|
C#|-----------------------------------------------|---------------------------------------------------|
G#|-----------------------------------------------|---------------------------------------------------|
D#|-0----0----0----0-----0----0----3----5----6----|-6----0----3----5----6----6----0----3----5----0----|


F#|---------------------------------------------------|---------------------------------------------------|
C#|---------------------------------------------------|---------------------------------------------------|
G#|---------------------------------------------------|---------------------------------------------------|
D#|-0----0----3----5----0----0----0----3----5----6----|-6----0----3----5----6----6----0----3----5----0----|


F#|---------------------------------------------------|-------------------------------------|
C#|---------------------------------------------------|-------------------------------------|
G#|---------------------------------------------------|-------------------------------------|
D#|-0----0----3----5----0----0----0----0----0----0----|-0----0----0-----0----0----3----3----|


F#|---------------------------------|---------------------------------|--------------------------------------|
C#|---------------------------------|---------------------------------|--------------------------------------|
G#|---------------------------------|---------------------------------|--------------------------------------|
D#|-3-----3-----3----3----5----5----|-5-----5-----5----5----3----0----|-3-----3-----3----0----3----5----6----|


F#|---------------------------------------------------|---------------------------------------------------|
C#|---------------------------------------------------|---------------------------------------------------|
G#|---------------------------------------------------|---------------------------------------------------|
D#|-6----0----3----5----6----6----0----3----5----0----|-0----0----3----5----0----0----0----3----5----6----|


F#|---------------------------------------------------|--------------------------------------------------------|
C#|---------------------------------------------------|--------------------------------------------------------|
G#|---------------------------------------------------|--------------------------------------------------------|
D#|-6----0----3----5----6----6----0----3----5----0----|-0----0----3----5----0----0----0----0----0----0----0----|


F#|-----------------------------------------|----------------------------------------------|
C#|-----------------------------------------|----------------------------------------------|
G#|-----------------------------------------|----------------------------------------------|
D#|-0----0----0----0----0----0----0----0----|-0----0----0----0----0----0----3----5----3----|


F#|-----------------------------------------|----------------------------------------------|
C#|-----------------------------------------|----------------------------------------------|
G#|-----------------------------------------|----------------------------------------------|
D#|-0----0----0----0----0----0----0----0----|-0----0----0----0----0----0----3----5----3----|


F#|-----------------------------------------|----------------------------------------------|
C#|-----------------------------------------|----------------------------------------------|
G#|-----------------------------------------|----------------------------------------------|
D#|-0----0----0----0----0----0----0----0----|-0----0----0----0----0----0----3----5----3----|


F#|-----------------------------------------|----------------------------------------------|
C#|-----------------------------------------|----------------------------------------------|
G#|-----------------------------------------|----------------------------------------------|
D#|-0----0----0----0----0----0----0----0----|-0----0----0----0----0----0----3----5----3----|


F#|-----------------------------|-----------------------------|-----------------------------|
C#|-----------------------------|-----------------------------|-----------------------------|
G#|-----------------------------|-----------------------------|-----------------------------|
D#|-0-----0-----0-----0----0----|-3-----3-----3-----3----3----|-5-----5-----5----5----5-----|


F#|-------------------------------------------------------------|-------------------------------------------------|
C#|-------------------------------------------------------------|-------------------------------------------------|
G#|-------------------------------------------------------------|-------------------------------------------------|
D#|-1----1----1----1----1----1----1----1----1----1----1----1----|-1----1----1----1----1----1----1-----1-----1-----|


F#|--------------------|-------------------------------------|-------------------------------------|
C#|--------------------|-------------------------------------|-------------------------------------|
G#|--------------------|-------------------------------------|-------------------------------------|
D#|-0------0------0----|-3-----3----3----3----3----3----3----|-5-----5----5----5----5----5----5----|


F#|-----------------------------------------|-------------------------------------|
C#|-----------------------------------------|-------------------------------------|
G#|-----------------------------------------|-------------------------------------|
D#|-3----3----3----3----3----3----0----3----|-0-----0----0----0----0----0----0----|


F#|-------------------------------------|-------------------------------------|----------------------------------------------|
C#|-------------------------------------|-------------------------------------|-----------5---------5------------------------|
G#|-------------------------------------|-------------------------------------|----------------------------------------------|
D#|-3-----3----3----3----3----3----3----|-5-----5----5----5----5----5----5----|-3----3---------3---------0----3----5----3----|


F#|---------------------------------|----------------------------------------------|
C#|---------------------------------|----------------%----%------------------------|
G#|---------------------------------|----------------%----%------------------------|
D#|-0-----0----0----0-----0----0----|-3----0----3--------------3----0----1----3----|


F#|----------------------------------------------------|-------------------------------------|
C#|----------------------------------------------------|-------------------------------------|
G#|----------------------------------------------------|-------------------------------------|
D#|-5----5----5----5----5----5----5-----5----3----0----|-3-----3-----3-----3-----3-----3-----|


F#|----------------------------------------------|----------------------------------------------|
C#|----------------------------------------------|----------------%----%------------------------|
G#|----------------------------------------------|----------------%----%------------------------|
D#|-0----0----0----0----0----0----0----0----0----|-3----0----3--------------3----0----1----3----|


F#|--------------------------------------|--------------------------------------------------------|
C#|--------------------------------------|--------------------------------------------------------|
G#|--------------------------------------|--------------------------------------------------------|
D#|-5----5----5-----5-----5----3----0----|-3----3----3----3----3----3----3----3----5----5----3----|


F#|-------------------------------------|-----------------------------------------|
C#|-------------------------------------|-----------------------------------------|
G#|-------------------------------------|-----------------------------------------|
D#|-0-----0----0----7----5----3----0----|-3----3----3----7----7----5----3----0----|


F#|----------------------------------------------|-----------------------------------------------|
C#|----------------------------------------------|-----------------------------------------------|
G#|----------------------------------------------|-----------------------------------------------|
D#|-5----5----5----8----7----5----3----2----0----|-3-----3----3----3----5----3----5----5----3----|


F#|-------------------------------------|------------------------------------------|
C#|-------------------------------------|------------------------------------------|
G#|-------------------------------------|------------------------------------------|
D#|-0-----0----0----7----5----3----0----|-3-----3----7----7----5----3----0----3----|


F#|------------------------------------------|-------------------------------------------------|
C#|------------------------------------------|-------------------------------------------------|
G#|------------------------------------------|-------------------------------------------------|
D#|-5-----5----8----7----5----3----2----0----|-3-----3-----3-----8----8----7----7----3----3----|


F#|--------------------------------------|---------------------------------------------------|
C#|--------------------------------------|------%--------------------------------------------|
G#|--------------------------------------|------%--------------------------------------------|
D#|-0-----0----0----0-----0----0----0----|-3---------3----3----3----3----1----0----1----3----|


F#|----------------------------------------------|------------------------------------------|
C#|------%---------------------------------------|------------5---------5-------------------|
G#|------%---------------------------------------|------------------------------------------|
D#|-5---------5----5----5----5----5----3----3----|-3-----3---------3---------3----2----1----|


F#|------------------------------------------|---------------------------------|-----------------------------------------|
C#|------------------------------------------|------%--------------------------|-----------------------------------------|
G#|------------------------------------------|------%--------------------------|-----------------------------------------|
D#|-0-----0----0----0----0----0----1----2----|-3---------3----3----3-----3-----|-5----5----5----5----5----5----5----3----|


F#|-------------------------------------------------------------|------------------------|
C#|-------------------------------------------------------------|------%----%-----%------|
G#|-------------------------------------------------------------|------%----%-----%------|
D#|-3----3----3----3----0----0----3----3----3----3----0----0----|-3----------------------|


F#|---------|--------------------------|---------------------------------------------------|
C#|-%-------|--------------------------|---------------------------------------------------|
G#|-%-------|--------------------------|---------------------------------------------------|
D#|---------|-0----0----3----5----6----|-6----0----3----5----6----6----0----3----5----0----|


F#|---------------------------------------------------|---------------------------------------------------|
C#|---------------------------------------------------|---------------------------------------------------|
G#|---------------------------------------------------|---------------------------------------------------|
D#|-0----0----3----5----0----0----0----3----5----6----|-6----0----3----5----6----6----0----3----5----0----|


F#|---------------------------------------------------|----------------------------------------------|
C#|---------------------------------------------------|----------------------------------------------|
G#|---------------------------------------------------|----------------------------------------------|
D#|-0----0----3----5----0----0----0----3----5----6----|-6----6----6----6----6----0----3----5----0----|


F#|------------------------------------------|-----------------------------------------------|
C#|------------------------------------------|-----------------------------------------------|
G#|------------------------------------------|-----------------------------------------------|
D#|-0----0----0-----0----0----3----5----6----|-6----6----6----6-----6----0----3----5----0----|


F#|-----------------------------------------------|---------------------------------------------------|
C#|-----------------------------------------------|---------------------------------------------------|
G#|-----------------------------------------------|---------------------------------------------------|
D#|-0----0----0----0-----0----0----3----5----6----|-6----0----3----5----6----6----0----3----5----0----|


F#|---------------------------------------------------|---------------------------------------------------|
C#|---------------------------------------------------|---------------------------------------------------|
G#|---------------------------------------------------|---------------------------------------------------|
D#|-0----0----3----5----0----0----0----3----5----6----|-6----0----3----5----6----6----0----3----5----0----|


F#|---------------------------------------------------|-------------------------------------|
C#|---------------------------------------------------|-------------------------------------|
G#|---------------------------------------------------|-------------------------------------|
D#|-0----0----3----5----0----0----0----0----0----0----|-0----0----0-----0----0----3----3----|


F#|---------------------------------|---------------------------------|--------------------------------------|
C#|---------------------------------|---------------------------------|--------------------------------------|
G#|---------------------------------|---------------------------------|--------------------------------------|
D#|-3-----3-----3----3----5----5----|-5-----5-----5----5----3----0----|-3-----3-----3----0----3----5----6----|


F#|---------------------------------------------------|---------------------------------------------------|
C#|---------------------------------------------------|---------------------------------------------------|
G#|---------------------------------------------------|---------------------------------------------------|
D#|-6----0----3----5----6----6----0----3----5----0----|-0----0----3----5----0----0----0----3----5----6----|


F#|---------------------------------------------------|--------------------------------------------------------|
C#|---------------------------------------------------|--------------------------------------------------------|
G#|---------------------------------------------------|--------------------------------------------------------|
D#|-6----0----3----5----6----6----0----3----5----0----|-0----0----3----5----0----0----0----0----0----0----0----|


F#|---------------------------------|-------------------------------------|-----------------------------|
C#|---------------------------------|-------5---------5---------5---------|-----------------------------|
G#|---------------------------------|-------------------------------------|-----------------------------|
D#|-0-----0-----0----0----0----0----|-3----------3---------3---------3----|-5-----5-----5----5----5-----|


F#|-------------------------------------------------------------|-------------------------------------------------|
C#|-------------------------------------------------------------|-------------------------------------------------|
G#|-------------------------------------------------------------|-------------------------------------------------|
D#|-1----1----1----1----1----1----1----1----1----1----1----1----|-1----1----1----1----1----1----1-----1-----1-----|


F#|---------------|
C#|--------%------|
G#|--------%------|
D#|-0-------------|

    

Nézd meg a videót és ismerd meg a leggyorsabb utat, hogyan tanulhatod meg kedvenc számaid gitáron!