Hogyan játszd el gitáron a Metallica – Bass & Guitar Doodle in Paris dalt?

Metallica Bass & Guitar Doodle in Paris – GITÁR PRO TAB, KOTTA, AKKORDOK

Kotta típusa: Kirk Hammet dist

(Általában egy zeneszám minden kottája: gitár, szólógitár, basszusgitár, ének, zongora, dob stb. megtalálható az oldalon, de mindegyik egy külön bejegyzésben. Ha egy másik hangszer gitártabos kottáját keresed, akkor az oldal alján vagy a keresőben megtalálod. Sokszor a zenekar tagjának a neve lesz a kotta kategóriája.)

        


E|---------|---------|---------|---------|---------|---------|---------|---------|---------|
B|---------|---------|---------|---------|---------|---------|---------|---------|---------|
G|-%-------|-%-------|-%-------|-%-------|-%-------|-%-------|-%-------|-%-------|-%-------|
D|-%-------|-%-------|-%-------|-%-------|-%-------|-%-------|-%-------|-%-------|-%-------|
A|---------|---------|---------|---------|---------|---------|---------|---------|---------|
E|---------|---------|---------|---------|---------|---------|---------|---------|---------|


E|---------|---------|---------|---------|---------|---------|---------|---------|---------|
B|---------|---------|---------|---------|---------|---------|---------|---------|---------|
G|-%-------|-%-------|-%-------|-%-------|-%-------|-%-------|-%-------|-%-------|-%-------|
D|-%-------|-%-------|-%-------|-%-------|-%-------|-%-------|-%-------|-%-------|-%-------|
A|---------|---------|---------|---------|---------|---------|---------|---------|---------|
E|---------|---------|---------|---------|---------|---------|---------|---------|---------|


E|---------|---------|---------|---------|---------|---------|---------|---------|---------|
B|---------|---------|---------|---------|---------|---------|---------|---------|---------|
G|-%-------|-%-------|-%-------|-%-------|-%-------|-%-------|-%-------|-%-------|-%-------|
D|-%-------|-%-------|-%-------|-%-------|-%-------|-%-------|-%-------|-%-------|-%-------|
A|---------|---------|---------|---------|---------|---------|---------|---------|---------|
E|---------|---------|---------|---------|---------|---------|---------|---------|---------|


E|---------|---------|---------|---------|---------|---------|--------------|--------------|
B|---------|---------|---------|---------|---------|---------|--------------|--------------|
G|-%-------|-%-------|-%-------|-%-------|-%-------|-%-------|-%------%-----|-%------%-----|
D|-%-------|-%-------|-%-------|-%-------|-%-------|-%-------|-%------%-----|-%------%-----|
A|---------|---------|---------|---------|---------|---------|--------------|--------------|
E|---------|---------|---------|---------|---------|---------|--------------|--------------|


E|--------------|--------------|--------------|--------------|------------|--------------|
B|--------------|--------------|--------------|--------------|------------|--------------|
G|-%------%-----|-%------%-----|-%------%-----|-%------%-----|-%-----%----|-%------%-----|
D|-%------%-----|-%------%-----|-%------%-----|-%------%-----|-%-----%----|-%------%-----|
A|--------------|--------------|--------------|--------------|------------|--------------|
E|--------------|--------------|--------------|--------------|------------|--------------|


E|--------------|--------------|--------------|--------------|--------------|--------------|
B|--------------|--------------|--------------|--------------|--------------|--------------|
G|-%------%-----|-%------%-----|-%------%-----|-%------%-----|-%------%-----|-%------%-----|
D|-%------%-----|-%------%-----|-%------%-----|-%------%-----|-%------%-----|-%------%-----|
A|--------------|--------------|--------------|--------------|--------------|--------------|
E|--------------|--------------|--------------|--------------|--------------|--------------|


E|--------------|--------------|--------------|--------------|--------------|--------------|
B|--------------|--------------|--------------|--------------|--------------|--------------|
G|-%------%-----|-%------%-----|-%------%-----|-%------%-----|-%------%-----|-%------%-----|
D|-%------%-----|-%------%-----|-%------%-----|-%------%-----|-%------%-----|-%------%-----|
A|--------------|--------------|--------------|--------------|--------------|--------------|
E|--------------|--------------|--------------|--------------|--------------|--------------|


E|--------------|--------------|--------------|--------------|--------------|--------------|
B|--------------|--------------|--------------|--------------|--------------|--------------|
G|-%------%-----|-%------%-----|-%------%-----|-%------%-----|-%------%-----|-%------%-----|
D|-%------%-----|-%------%-----|-%------%-----|-%------%-----|-%------%-----|-%------%-----|
A|--------------|--------------|--------------|--------------|--------------|--------------|
E|--------------|--------------|--------------|--------------|--------------|--------------|


E|--------------|--------------|--------------|--------------|--------------|--------------|
B|--------------|--------------|--------------|--------------|--------------|--------------|
G|-%------%-----|-%------%-----|-%------%-----|-%------%-----|-%------%-----|-%------%-----|
D|-%------%-----|-%------%-----|-%------%-----|-%------%-----|-%------%-----|-%------%-----|
A|--------------|--------------|--------------|--------------|--------------|--------------|
E|--------------|--------------|--------------|--------------|--------------|--------------|


E|--------------|-3-------|-5-----7---7----0------|-0-------|-5-----7---7----8------|
B|--------------|-5-------|-7-----8---8----8------|-8-------|-7-----8---8----8------|
G|-%------%-----|---------|-----------------------|---------|-----------------------|
D|-%------%-----|---------|-----------------------|---------|-----------------------|
A|--------------|---------|-----------------------|---------|-----------------------|
E|--------------|---------|-----------------------|---------|-----------------------|


E|-7-------|-5-----7---7----0------|---------------|---------|---------|--------------|
B|-8-------|-7-----8---8----8------|-8------7------|---------|---------|--------------|
G|---------|-----------------------|---------------|-9-------|-9-------|-%------%-----|
D|---------|-----------------------|-9-------------|-9-------|-9-------|-%------%-----|
A|---------|-----------------------|---------------|---------|---------|--------------|
E|---------|-----------------------|---------------|---------|---------|--------------|


E|--------------|--------------|--------------|--------------|--------------|--------------|
B|--------------|--------------|--------------|--------------|--------------|--------------|
G|-%------%-----|-%------%-----|-%------%-----|-%------%-----|-%------%-----|-%------%-----|
D|-%------%-----|-%------%-----|-%------%-----|-%------%-----|-%------%-----|-%------%-----|
A|--------------|--------------|--------------|--------------|--------------|--------------|
E|--------------|--------------|--------------|--------------|--------------|--------------|


E|--------------|--------------|--------------|--------------|--------------|--------------|
B|--------------|--------------|--------------|--------------|--------------|--------------|
G|-%------%-----|-%------%-----|-%------%-----|-%------%-----|-%------%-----|-%------%-----|
D|-%------%-----|-%------%-----|-%------%-----|-%------%-----|-%------%-----|-%------%-----|
A|--------------|--------------|--------------|--------------|--------------|--------------|
E|--------------|--------------|--------------|--------------|--------------|--------------|


E|------------|--------------|--------------|--------------|--------------|--------------|
B|------------|--------------|--------------|--------------|--------------|--------------|
G|-%-----%----|-%------%-----|-%------%-----|-%------%-----|-%------%-----|-%------%-----|
D|-%-----%----|-%------%-----|-%------%-----|-%------%-----|-%------%-----|-%------%-----|
A|------------|--------------|--------------|--------------|--------------|--------------|
E|------------|--------------|--------------|--------------|--------------|--------------|


E|--------------|--------------|--------------|--------------|--------------|--------------|
B|--------------|--------------|--------------|--------------|--------------|--------------|
G|-%------%-----|-%------%-----|-%------%-----|-%------%-----|-%------%-----|-%------%-----|
D|-%------%-----|-%------%-----|-%------%-----|-%------%-----|-%------%-----|-%------%-----|
A|--------------|--------------|--------------|--------------|--------------|--------------|
E|--------------|--------------|--------------|--------------|--------------|--------------|


E|--------------|--------------|--------------|-------------------------------------|
B|--------------|--------------|--------------|-------------------------------------|
G|-%------%-----|-%------%-----|-%------%-----|-%------------0----0------------2----|
D|-%------%-----|-%------%-----|-%------%-----|-%--------2-----------------2--------|
A|--------------|--------------|--------------|------3-----------------0------------|
E|--------------|--------------|--------------|-------------------------------------|


E|-------------------|-0-------|--------------|--------------|--------------|--------------|
B|--------------3----|---------|--------------|--------------|--------------|--------------|
G|-2--------2--------|---------|-%------%-----|-%------%-----|-%------%-----|-%------%-----|
D|------0------------|---------|-%------%-----|-%------%-----|-%------%-----|-%------%-----|
A|-------------------|---------|--------------|--------------|--------------|--------------|
E|-------------------|---------|--------------|--------------|--------------|--------------|


E|--------------|--------------|--------------|--------------|--------------|--------------|
B|--------------|--------------|--------------|--------------|--------------|--------------|
G|-%------%-----|-%------%-----|-%------%-----|-%------%-----|-%------%-----|-%------%-----|
D|-%------%-----|-%------%-----|-%------%-----|-%------%-----|-%------%-----|-%------%-----|
A|--------------|--------------|--------------|--------------|--------------|--------------|
E|--------------|--------------|--------------|--------------|--------------|--------------|


E|--------------|--------------|--------------|--------------|--------------|--------------|
B|--------------|--------------|--------------|--------------|--------------|--------------|
G|-%------%-----|-%------%-----|-%------%-----|-%------%-----|-%------%-----|-%------%-----|
D|-%------%-----|-%------%-----|-%------%-----|-%------%-----|-%------%-----|-%------%-----|
A|--------------|--------------|--------------|--------------|--------------|--------------|
E|--------------|--------------|--------------|--------------|--------------|--------------|


E|--------------|-0-------|-5-----7---7----0------|-0-------|-5-----7---7----8------|
B|--------------|-8-------|-7-----8---8----8------|-8-------|-7-----8---8----8------|
G|-%------%-----|---------|-----------------------|---------|-----------------------|
D|-%------%-----|---------|-----------------------|---------|-----------------------|
A|--------------|---------|-----------------------|---------|-----------------------|
E|--------------|---------|-----------------------|---------|-----------------------|


E|-7-------|-5-----7---7----0------|---------------|---------|---------|--------------|
B|-8-------|-7-----8---8----8------|-8------7------|---------|---------|--------------|
G|---------|-----------------------|---------------|-9-------|-9-------|-%------%-----|
D|---------|-----------------------|-9-------------|-9-------|-9-------|-%------%-----|
A|---------|-----------------------|---------------|---------|---------|--------------|
E|---------|-----------------------|---------------|---------|---------|--------------|


E|--------------|--------------|--------------|--------------|--------------|--------------|
B|--------------|--------------|--------------|--------------|--------------|--------------|
G|-%------%-----|-%------%-----|-%------%-----|-%------%-----|-%------%-----|-%------%-----|
D|-%------%-----|-%------%-----|-%------%-----|-%------%-----|-%------%-----|-%------%-----|
A|--------------|--------------|--------------|--------------|--------------|--------------|
E|--------------|--------------|--------------|--------------|--------------|--------------|


E|--------------|--------------|--------------|--------------|--------------|--------------|
B|--------------|--------------|--------------|--------------|--------------|--------------|
G|-%------%-----|-%------%-----|-%------%-----|-%------%-----|-%------%-----|-%------%-----|
D|-%------%-----|-%------%-----|-%------%-----|-%------%-----|-%------%-----|-%------%-----|
A|--------------|--------------|--------------|--------------|--------------|--------------|
E|--------------|--------------|--------------|--------------|--------------|--------------|


E|--------------|--------------|--------------|--------------|--------|---------|----------------------------------------|
B|--------------|--------------|--------------|--------------|--------|---------|----------------------------------------|
G|-%------%-----|-%------%-----|-%------%-----|-%------%-----|-%------|-%-------|----------------------------------------|
D|-%------%-----|-%------%-----|-%------%-----|-%------%-----|-%------|-%-------|-2---2---2---2---2---2------------------|
A|--------------|--------------|--------------|--------------|--------|---------|-------------------------2----2----2----|
E|--------------|--------------|--------------|--------------|--------|---------|-0---0---0---0---0---0---0----0----0----|


E|--------------------------|--------------------------|--------------------------|
B|-----------0---0-----0----|--------------------------|-----------0---0-----0----|
G|--------------------------|-2-----2----0-------------|--------------------------|
D|-------4---2---2-----2----|-0-----0------------------|-------4---2---2-----2----|
A|-2-----2------------------|------------3-------------|-2-----2------------------|
E|-0------------------------|------------------3---2---|-0------------------------|


E|--------------------------|--------------------------|-------------------|---------------|
B|--------------------------|-----------0---0-----0----|-------------------|---------------|
G|-2-----2----0-------------|--------------------------|-2-----2----0------|---------------|
D|-0-----0------------------|-------4---2---2-----2----|-0-----0-----------|-0------4------|
A|------------3-------------|-2-----2------------------|------------3------|--------2------|
E|------------------3---2---|-0------------------------|-------------------|-3-------------|


E|---------|---------|---------|---------|--------------|--------------|--------------|
B|---------|---------|---------|---------|--------------|--------------|--------------|
G|---------|---------|---------|---------|-%------%-----|-%------%-----|-%------%-----|
D|---------|---------|---------|---------|-%------%-----|-%------%-----|-%------%-----|
A|-2-------|-2-------|-2-------|-2-------|--------------|--------------|--------------|
E|-0-------|-0-------|-0-------|-0-------|--------------|--------------|--------------|


E|--------------|--------------|--------------|--------------|--------------|--------------|
B|--------------|--------------|--------------|--------------|--------------|--------------|
G|-%------%-----|-%------%-----|-%------%-----|-%------%-----|-%------%-----|-%------%-----|
D|-%------%-----|-%------%-----|-%------%-----|-%------%-----|-%------%-----|-%------%-----|
A|--------------|--------------|--------------|--------------|--------------|--------------|
E|--------------|--------------|--------------|--------------|--------------|--------------|


E|--------------|--------------|------------|--------------|--------------|--------------|
B|--------------|--------------|------------|--------------|--------------|--------------|
G|-%------%-----|-%------%-----|-%-----%----|-%------%-----|-%------%-----|-%------%-----|
D|-%------%-----|-%------%-----|-%-----%----|-%------%-----|-%------%-----|-%------%-----|
A|--------------|--------------|------------|--------------|--------------|--------------|
E|--------------|--------------|------------|--------------|--------------|--------------|

    

Nézd meg a videót és ismerd meg a leggyorsabb utat, hogyan tanulhatod meg kedvenc számaid gitáron!