Hogyan játszd el gitáron a Metallica – Commando dalt?

Metallica Commando – GITÁR PRO TAB, KOTTA, AKKORDOK

Kotta típusa: Drums

(Általában egy zeneszám minden kottája: gitár, szólógitár, basszusgitár, ének, zongora, dob stb. megtalálható az oldalon, de mindegyik egy külön bejegyzésben. Ha egy másik hangszer gitártabos kottáját keresed, akkor az oldal alján vagy a keresőben megtalálod. Sokszor a zenekar tagjának a neve lesz a kotta kategóriája.)

        


C|-46----46----46----46----|-49----------------------|-------------------------|-------------------------|
C|-------------------------|-------------------------|-------------------------|-------------------------|
C|-------------------------|-------------------------|-------------------------|-------------------------|
C|-------------------------|-------40----------40----|-------40----------40----|-------40----------40----|
C|-------------------------|-------------------------|-------------------------|-------------------------|
C|-------------------------|-36----36----36----36----|-36----36----36----36----|-36----36----36----36----|


C|-------------------------|-49----------49----------|-49----------49----------|-49----------49----------|
C|-------------------------|-------------------------|-------------------------|-------------------------|
C|-------------------------|-------------------------|-------------------------|-------------------------|
C|-------40----40----40----|-------40----------40----|-------40----------40----|-------40----------40----|
C|-------------------------|-------------------------|-------------------------|-------------------------|
C|-36----36----36----36----|-36----36----36----36----|-36----36----36----36----|-36----36----36----36----|


C|-49----------49----------|-49----------49----------|-49----------49----------|-49----------------------|
C|-------------------------|-------------------------|-------------------------|-------------------------|
C|-------------------------|-------------------------|-------------------------|-------------------------|
C|-------40----------40----|-------40----------40----|-------40----------40----|-------40----------40----|
C|-------------------------|-------------------------|-------------------------|-------------------------|
C|-36----36----36----36----|-36----36----36----36----|-36----36----36----36----|-36----36----36----36----|


C|-------------------------|-------------------------|-------------------------|-49----------49----------|
C|-------------------------|-------------------------|-------------------------|-------------------------|
C|-------------------------|-------------------------|-------------------------|-------------------------|
C|-------40----------40----|-------40----------40----|-------40----40----40----|-------40----------40----|
C|-------------------------|-------------------------|-------------------------|-------------------------|
C|-36----36----36----36----|-36----36----36----36----|-36----36----36----36----|-36----36----36----36----|


C|-49----------49----------|-49----------49----------|-49----------49----------|-49----------49----------|
C|-------------------------|-------------------------|-------------------------|-------------------------|
C|-------------------------|-------------------------|-------------------------|-------------------------|
C|-------40----------40----|-------40----------40----|-------40----------40----|-------40----------40----|
C|-------------------------|-------------------------|-------------------------|-------------------------|
C|-36----36----36----36----|-36----36----36----36----|-36----36----36----36----|-36----36----36----36----|


C|-49----------49----------|-49----------49----------|-49----------49----------|-49----------------------|
C|-------------------------|-------------------------|-------------------------|-------------------------|
C|-------------------------|-------------------------|-------------------------|-------------------------|
C|-------40----------40----|-------40----------40----|-------40----------40----|-------40----------40----|
C|-------------------------|-------------------------|-------------------------|-------------------------|
C|-36----36----36----36----|-36----36----36----36----|-36----36----36----36----|-36----36----36----36----|


C|-------------------------|-------------------------|-------------------------|-49----------49----------|
C|-------------------------|-------------------------|-------------------------|-------------------------|
C|-------------------------|-------------------------|-------------------------|-------------------------|
C|-------40----------40----|-------40----------40----|-------40----40----40----|-------40----------40----|
C|-------------------------|-------------------------|-------------------------|-------------------------|
C|-36----36----36----36----|-36----36----36----36----|-36----36----36----36----|-36----36----36----36----|


C|-49----------49----------|-49----------49----------|-49----------49----------|-49----------49----------|
C|-------------------------|-------------------------|-------------------------|-------------------------|
C|-------------------------|-------------------------|-------------------------|-------------------------|
C|-------40----------40----|-------40----------40----|-------40----------40----|-------40----------40----|
C|-------------------------|-------------------------|-------------------------|-------------------------|
C|-36----36----36----36----|-36----36----36----36----|-36----36----36----36----|-36----36----36----36----|


C|-49----------49----------|-49------|
C|-------------------------|---------|
C|-------------------------|---------|
C|-------40----------40----|-40------|
C|-------------------------|---------|
C|-36----36----36----36----|-36------|

    

Nézd meg a videót és ismerd meg a leggyorsabb utat, hogyan tanulhatod meg kedvenc számaid gitáron!