Hogyan játszd el gitáron a Metallica – Creeping Death dalt?

Metallica Creeping Death – GITÁR PRO TAB, KOTTA, AKKORDOK

Kotta típusa: Voice

(Általában egy zeneszám minden kottája: gitár, szólógitár, basszusgitár, ének, zongora, dob stb. megtalálható az oldalon, de mindegyik egy külön bejegyzésben. Ha egy másik hangszer gitártabos kottáját keresed, akkor az oldal alján vagy a keresőben megtalálod. Sokszor a zenekar tagjának a neve lesz a kotta kategóriája.)

        


E|---------|---------|---------|---------|---------|---------|---------|---------|---------|
B|---------|---------|---------|---------|---------|---------|---------|---------|---------|
G|-%-------|-%-------|-%-------|-%-------|-%-------|-%-------|-%-------|-%-------|-%-------|
D|-%-------|-%-------|-%-------|-%-------|-%-------|-%-------|-%-------|-%-------|-%-------|
A|---------|---------|---------|---------|---------|---------|---------|---------|---------|
E|---------|---------|---------|---------|---------|---------|---------|---------|---------|


E|---------|---------|---------|---------|---------|---------|---------|---------|---------|
B|---------|---------|---------|---------|---------|---------|---------|---------|---------|
G|-%-------|-%-------|-%-------|-%-------|-%-------|-%-------|-%-------|-%-------|-%-------|
D|-%-------|-%-------|-%-------|-%-------|-%-------|-%-------|-%-------|-%-------|-%-------|
A|---------|---------|---------|---------|---------|---------|---------|---------|---------|
E|---------|---------|---------|---------|---------|---------|---------|---------|---------|


E|---------|---------|---------|---------|---------|---------|---------|---------|---------|
B|---------|---------|---------|---------|---------|---------|---------|---------|---------|
G|-%-------|-%-------|-%-------|-%-------|-%-------|-%-------|-%-------|-%-------|-%-------|
D|-%-------|-%-------|-%-------|-%-------|-%-------|-%-------|-%-------|-%-------|-%-------|
A|---------|---------|---------|---------|---------|---------|---------|---------|---------|
E|---------|---------|---------|---------|---------|---------|---------|---------|---------|


E|---------|---------|---------|---------|---------|---------|---------|---------|---------|
B|---------|---------|---------|---------|---------|---------|---------|---------|---------|
G|-%-------|-%-------|-%-------|-%-------|-%-------|-%-------|-%-------|-%-------|-%-------|
D|-%-------|-%-------|-%-------|-%-------|-%-------|-%-------|-%-------|-%-------|-%-------|
A|---------|---------|---------|---------|---------|---------|---------|---------|---------|
E|---------|---------|---------|---------|---------|---------|---------|---------|---------|


E|---------|---------|---------|---------|---------|---------|---------|---------|---------|
B|---------|---------|---------|---------|---------|---------|---------|---------|---------|
G|-%-------|-%-------|-%-------|-%-------|-%-------|-%-------|-%-------|-%-------|-%-------|
D|-%-------|-%-------|-%-------|-%-------|-%-------|-%-------|-%-------|-%-------|-%-------|
A|---------|---------|---------|---------|---------|---------|---------|---------|---------|
E|---------|---------|---------|---------|---------|---------|---------|---------|---------|


E|---------|---------|---------|---------|-19---------------------|-------------------15-----15---|
B|---------|---------|---------|---------|--------17---17----17---|-17---17----17--17-------------|
G|-%-------|-%-------|-%-------|-%-------|------------------------|-------------------------------|
D|-%-------|-%-------|-%-------|-%-------|------------------------|-------------------------------|
A|---------|---------|---------|---------|------------------------|-------------------------------|
E|---------|---------|---------|---------|------------------------|-------------------------------|


E|-------------------15---|-15---------------------|-19---------------------|-------------------------------|
B|--------17---17---------|------15-----15---------|--------17---17----17---|-17---17----17--17-15-----15---|
G|-%----------------------|------------------%-----|------------------------|-------------------------------|
D|-%----------------------|------------------%-----|------------------------|-------------------------------|
A|------------------------|------------------------|------------------------|-------------------------------|
E|------------------------|------------------------|------------------------|-------------------------------|


E|------------------------|---------------|-19---------------------|-------------------15-----15---|
B|--------17---17----17---|-17------------|--------17---17----17---|-17---17----17--17-------------|
G|-%----------------------|-------%-------|------------------------|-------------------------------|
D|-%----------------------|-------%-------|------------------------|-------------------------------|
A|------------------------|---------------|------------------------|-------------------------------|
E|------------------------|---------------|------------------------|-------------------------------|


E|-------------------15---|-15---------------------|-19---------------------|-------------------------------|
B|--------17---17---------|------15-----15---------|--------17---17----17---|-17---17----17--17-15-----15---|
G|-%----------------------|------------------%-----|------------------------|-------------------------------|
D|-%----------------------|------------------%-----|------------------------|-------------------------------|
A|------------------------|------------------------|------------------------|-------------------------------|
E|------------------------|------------------------|------------------------|-------------------------------|


E|-----------------------------|---------------|---------|---------|---------|---------|
B|-------------17---17----17---|-17------------|---------|---------|---------|---------|
G|-%------16-------------------|--------%------|-%-------|-%-------|-%-------|-%-------|
D|-%---------------------------|--------%------|-%-------|-%-------|-%-------|-%-------|
A|-----------------------------|---------------|---------|---------|---------|---------|
E|-----------------------------|---------------|---------|---------|---------|---------|


E|---------|---------|---------|---------|-------7-----12---12---14---15---|-15---15-14-15------------|
B|---------|---------|---------|---------|---------------------------------|--------------------------|
G|-%-------|-%-------|-%-------|-%-------|-%-------------------------------|-------------------%------|
D|-%-------|-%-------|-%-------|-%-------|-%-------------------------------|-------------------%------|
A|---------|---------|---------|---------|---------------------------------|--------------------------|
E|---------|---------|---------|---------|---------------------------------|--------------------------|


E|--------12---14---14---14---14---|-14--12--14------------|-------------12----14---15---|
B|---------------------------------|-----------------------|-------12--------------------|
G|-%-------------------------------|----------------%------|-%---------------------------|
D|-%-------------------------------|----------------%------|-%---------------------------|
A|---------------------------------|-----------------------|-----------------------------|
E|---------------------------------|-----------------------|-----------------------------|


E|-15----14----12---12-----|-14--12--14------------|---------|-------7-----12---12---14---15---|
B|-------------------------|-----------------------|---------|---------------------------------|
G|-------------------------|----------------%------|-%-------|-%-------------------------------|
D|-------------------------|----------------%------|-%-------|-%-------------------------------|
A|-------------------------|-----------------------|---------|---------------------------------|
E|-------------------------|-----------------------|---------|---------------------------------|


E|-15---15-14-15------------|--------12---14---14---14---14---|-14--12--14------------|
B|--------------------------|---------------------------------|-----------------------|
G|-------------------%------|-%-------------------------------|----------------%------|
D|-------------------%------|-%-------------------------------|----------------%------|
A|--------------------------|---------------------------------|-----------------------|
E|--------------------------|---------------------------------|-----------------------|


E|-------------12----14---15---|-15----14----12---12-----|-14--12--14------------|-----------------------------|
B|-------12--------------------|-------------------------|-----------------------|-------12----12----12---12---|
G|-%---------------------------|-------------------------|----------------%------|-%---------------------------|
D|-%---------------------------|-------------------------|----------------%------|-%---------------------------|
A|-----------------------------|-------------------------|-----------------------|-----------------------------|
E|-----------------------------|-------------------------|-----------------------|-----------------------------|


E|-12------------|---------|---------|---------|---------|---------|---------|---------|
B|---------------|---------|---------|---------|---------|---------|---------|---------|
G|---------%-----|-%-------|-%-------|-%-------|-%-------|-%-------|-%-------|-%-------|
D|---------%-----|-%-------|-%-------|-%-------|-%-------|-%-------|-%-------|-%-------|
A|---------------|---------|---------|---------|---------|---------|---------|---------|
E|---------------|---------|---------|---------|---------|---------|---------|---------|


E|-19---------------------|-------------------15-----15---|-------------------15---|
B|--------17---17----17---|-17---17----17--17-------------|--------17---17---------|
G|------------------------|-------------------------------|-%----------------------|
D|------------------------|-------------------------------|-%----------------------|
A|------------------------|-------------------------------|------------------------|
E|------------------------|-------------------------------|------------------------|


E|-15---------------------|-19---------------------|-------------------------------|
B|------15-----15---------|--------17---17----17---|-17---17----17--17-15-----15---|
G|------------------%-----|------------------------|-------------------------------|
D|------------------%-----|------------------------|-------------------------------|
A|------------------------|------------------------|-------------------------------|
E|------------------------|------------------------|-------------------------------|


E|------------------------|---------------|-19---------------------|-------------------15-----15---|
B|--------17---17----17---|-17------------|--------17---17----17---|-17---17----17--17-------------|
G|-%----------------------|-------%-------|------------------------|-------------------------------|
D|-%----------------------|-------%-------|------------------------|-------------------------------|
A|------------------------|---------------|------------------------|-------------------------------|
E|------------------------|---------------|------------------------|-------------------------------|


E|-------------------15---|-15---------------------|-19---------------------|-------------------------------|
B|--------17---17---------|------15-----15---------|--------17---17----17---|-17---17----17--17-15-----15---|
G|-%----------------------|------------------%-----|------------------------|-------------------------------|
D|-%----------------------|------------------%-----|------------------------|-------------------------------|
A|------------------------|------------------------|------------------------|-------------------------------|
E|------------------------|------------------------|------------------------|-------------------------------|


E|-----------------------------|---------------|---------|---------|---------|---------|
B|-------------17---17----17---|-17------------|---------|---------|---------|---------|
G|-%------16-------------------|--------%------|-%-------|-%-------|-%-------|-%-------|
D|-%---------------------------|--------%------|-%-------|-%-------|-%-------|-%-------|
A|-----------------------------|---------------|---------|---------|---------|---------|
E|-----------------------------|---------------|---------|---------|---------|---------|


E|---------|---------|---------|---------|-------7-----12---12---14---15---|-15---15-14-15------------|
B|---------|---------|---------|---------|---------------------------------|--------------------------|
G|-%-------|-%-------|-%-------|-%-------|-%-------------------------------|-------------------%------|
D|-%-------|-%-------|-%-------|-%-------|-%-------------------------------|-------------------%------|
A|---------|---------|---------|---------|---------------------------------|--------------------------|
E|---------|---------|---------|---------|---------------------------------|--------------------------|


E|--------12---14---14---14---14---|-14--12--14------------|-------------12----14---15---|
B|---------------------------------|-----------------------|-------12--------------------|
G|-%-------------------------------|----------------%------|-%---------------------------|
D|-%-------------------------------|----------------%------|-%---------------------------|
A|---------------------------------|-----------------------|-----------------------------|
E|---------------------------------|-----------------------|-----------------------------|


E|-15----14----12---12-----|-14--12--14------------|---------|-------7-----12---12---14---15---|
B|-------------------------|-----------------------|---------|---------------------------------|
G|-------------------------|----------------%------|-%-------|-%-------------------------------|
D|-------------------------|----------------%------|-%-------|-%-------------------------------|
A|-------------------------|-----------------------|---------|---------------------------------|
E|-------------------------|-----------------------|---------|---------------------------------|


E|-15---15-14-15------------|--------12---14---14---14---14---|-14--12--14------------|
B|--------------------------|---------------------------------|-----------------------|
G|-------------------%------|-%-------------------------------|----------------%------|
D|-------------------%------|-%-------------------------------|----------------%------|
A|--------------------------|---------------------------------|-----------------------|
E|--------------------------|---------------------------------|-----------------------|


E|-------------12----14---15---|-15----14----12---12-----|-14--12--14------------|-----------------------------|
B|-------12--------------------|-------------------------|-----------------------|-------12----12----12---12---|
G|-%---------------------------|-------------------------|----------------%------|-%---------------------------|
D|-%---------------------------|-------------------------|----------------%------|-%---------------------------|
A|-----------------------------|-------------------------|-----------------------|-----------------------------|
E|-----------------------------|-------------------------|-----------------------|-----------------------------|


E|-12------------|---------|---------|---------|---------|---------|---------|---------|
B|---------------|---------|---------|---------|---------|---------|---------|---------|
G|---------%-----|-%-------|-%-------|-%-------|-%-------|-%-------|-%-------|-%-------|
D|---------%-----|-%-------|-%-------|-%-------|-%-------|-%-------|-%-------|-%-------|
A|---------------|---------|---------|---------|---------|---------|---------|---------|
E|---------------|---------|---------|---------|---------|---------|---------|---------|


E|---------|---------|---------|---------|---------|---------|---------|---------|---------|
B|---------|---------|---------|---------|---------|---------|---------|---------|---------|
G|-%-------|-%-------|-%-------|-%-------|-%-------|-%-------|-%-------|-%-------|-%-------|
D|-%-------|-%-------|-%-------|-%-------|-%-------|-%-------|-%-------|-%-------|-%-------|
A|---------|---------|---------|---------|---------|---------|---------|---------|---------|
E|---------|---------|---------|---------|---------|---------|---------|---------|---------|


E|---------|---------|---------|---------|---------|---------|---------|---------|---------|
B|---------|---------|---------|---------|---------|---------|---------|---------|---------|
G|-%-------|-%-------|-%-------|-%-------|-%-------|-%-------|-%-------|-%-------|-%-------|
D|-%-------|-%-------|-%-------|-%-------|-%-------|-%-------|-%-------|-%-------|-%-------|
A|---------|---------|---------|---------|---------|---------|---------|---------|---------|
E|---------|---------|---------|---------|---------|---------|---------|---------|---------|


E|---------|---------|---------|---------|---------|---------|---------|---------|---------|
B|---------|---------|---------|---------|---------|---------|---------|---------|---------|
G|-%-------|-%-------|-%-------|-%-------|-%-------|-%-------|-%-------|-%-------|-%-------|
D|-%-------|-%-------|-%-------|-%-------|-%-------|-%-------|-%-------|-%-------|-%-------|
A|---------|---------|---------|---------|---------|---------|---------|---------|---------|
E|---------|---------|---------|---------|---------|---------|---------|---------|---------|


E|---------|---------|---------|---------|---------|---------|---------|---------|---------|
B|---------|---------|---------|---------|---------|---------|---------|---------|---------|
G|-%-------|-%-------|-%-------|-%-------|-%-------|-%-------|-%-------|-%-------|-%-------|
D|-%-------|-%-------|-%-------|-%-------|-%-------|-%-------|-%-------|-%-------|-%-------|
A|---------|---------|---------|---------|---------|---------|---------|---------|---------|
E|---------|---------|---------|---------|---------|---------|---------|---------|---------|


E|---------|---------|---------|---------|---------|---------|---------|---------|---------|
B|---------|---------|---------|---------|---------|---------|---------|---------|---------|
G|-%-------|-%-------|-%-------|-%-------|-%-------|-%-------|-%-------|-%-------|-%-------|
D|-%-------|-%-------|-%-------|-%-------|-%-------|-%-------|-%-------|-%-------|-%-------|
A|---------|---------|---------|---------|---------|---------|---------|---------|---------|
E|---------|---------|---------|---------|---------|---------|---------|---------|---------|


E|---------|---------|---------|---------|---------|---------|---------|---------|---------|
B|---------|---------|---------|---------|---------|---------|---------|---------|---------|
G|-%-------|-%-------|-%-------|-%-------|-%-------|-%-------|-%-------|-%-------|-%-------|
D|-%-------|-%-------|-%-------|-%-------|-%-------|-%-------|-%-------|-%-------|-%-------|
A|---------|---------|---------|---------|---------|---------|---------|---------|---------|
E|---------|---------|---------|---------|---------|---------|---------|---------|---------|


E|---------|---------|---------|-12------------|-13-----10-----10---|-12-----------------|
B|---------|---------|---------|---------------|--------------------|--------------12----|
G|-%-------|-%-------|-%-------|--------%------|--------------------|--------%-----------|
D|-%-------|-%-------|-%-------|--------%------|--------------------|--------%-----------|
A|---------|---------|---------|---------------|--------------------|--------------------|
E|---------|---------|---------|---------------|--------------------|--------------------|


E|-----------------------------|-12------------|-13----13----10----10----|-12--10--12------12---|
B|-12----12----12----12---12---|---------------|-------------------------|----------------------|
G|-----------------------------|---------%-----|-------------------------|----------------------|
D|-----------------------------|---------%-----|-------------------------|----------------------|
A|-----------------------------|---------------|-------------------------|----------------------|
E|-----------------------------|---------------|-------------------------|----------------------|


E|---------|-12------------|-13-----10-----10---|-12-----------------|-----------------------------|
B|---------|---------------|--------------------|--------------12----|-12----12----12----12---12---|
G|-%-------|--------%------|--------------------|--------%-----------|-----------------------------|
D|-%-------|--------%------|--------------------|--------%-----------|-----------------------------|
A|---------|---------------|--------------------|--------------------|-----------------------------|
E|---------|---------------|--------------------|--------------------|-----------------------------|


E|-12------------|-13----13----10----10----|-12--10--12------12---|---------|---------|
B|---------------|-------------------------|----------------------|---------|---------|
G|---------%-----|-------------------------|----------------------|-%-------|-%-------|
D|---------%-----|-------------------------|----------------------|-%-------|-%-------|
A|---------------|-------------------------|----------------------|---------|---------|
E|---------------|-------------------------|----------------------|---------|---------|


E|---------|---------|---------|---------|---------|-19---------------------|-------------------15-----15---|
B|---------|---------|---------|---------|---------|--------17---17----17---|-17---17----17--17-------------|
G|-%-------|-%-------|-%-------|-%-------|-%-------|------------------------|-------------------------------|
D|-%-------|-%-------|-%-------|-%-------|-%-------|------------------------|-------------------------------|
A|---------|---------|---------|---------|---------|------------------------|-------------------------------|
E|---------|---------|---------|---------|---------|------------------------|-------------------------------|


E|-------------------15---|-15---------------------|-19---------------------|-------------------------------|
B|--------17---17---------|------15-----15---------|--------17---17----17---|-17---17----17--17-15-----15---|
G|-%----------------------|------------------%-----|------------------------|-------------------------------|
D|-%----------------------|------------------%-----|------------------------|-------------------------------|
A|------------------------|------------------------|------------------------|-------------------------------|
E|------------------------|------------------------|------------------------|-------------------------------|


E|------------------------|---------------|-19---------------------|-------------------15-----15---|
B|--------17---17----17---|-17------------|--------17---17----17---|-17---17----17--17-------------|
G|-%----------------------|-------%-------|------------------------|-------------------------------|
D|-%----------------------|-------%-------|------------------------|-------------------------------|
A|------------------------|---------------|------------------------|-------------------------------|
E|------------------------|---------------|------------------------|-------------------------------|


E|-------------------15---|-15---------------------|-19---------------------|-------------------------------|
B|--------17---17---------|------15-----15---------|--------17---17----17---|-17---17----17--17-15-----15---|
G|-%----------------------|------------------%-----|------------------------|-------------------------------|
D|-%----------------------|------------------%-----|------------------------|-------------------------------|
A|------------------------|------------------------|------------------------|-------------------------------|
E|------------------------|------------------------|------------------------|-------------------------------|


E|-----------------------------|---------------|---------|---------|---------|---------|
B|-------------17---17----17---|-17------------|---------|---------|---------|---------|
G|-%------16-------------------|--------%------|-%-------|-%-------|-%-------|-%-------|
D|-%---------------------------|--------%------|-%-------|-%-------|-%-------|-%-------|
A|-----------------------------|---------------|---------|---------|---------|---------|
E|-----------------------------|---------------|---------|---------|---------|---------|


E|---------|---------|---------|---------|-------7-----12---12---14---15---|-15---15-14-15------------|
B|---------|---------|---------|---------|---------------------------------|--------------------------|
G|-%-------|-%-------|-%-------|-%-------|-%-------------------------------|-------------------%------|
D|-%-------|-%-------|-%-------|-%-------|-%-------------------------------|-------------------%------|
A|---------|---------|---------|---------|---------------------------------|--------------------------|
E|---------|---------|---------|---------|---------------------------------|--------------------------|


E|--------12---14---14---14---14---|-14--12--14------------|-------------12----14---15---|
B|---------------------------------|-----------------------|-------12--------------------|
G|-%-------------------------------|----------------%------|-%---------------------------|
D|-%-------------------------------|----------------%------|-%---------------------------|
A|---------------------------------|-----------------------|-----------------------------|
E|---------------------------------|-----------------------|-----------------------------|


E|-15----14----12---12-----|-14--12--14------------|---------|-------7-----12---12---14---15---|
B|-------------------------|-----------------------|---------|---------------------------------|
G|-------------------------|----------------%------|-%-------|-%-------------------------------|
D|-------------------------|----------------%------|-%-------|-%-------------------------------|
A|-------------------------|-----------------------|---------|---------------------------------|
E|-------------------------|-----------------------|---------|---------------------------------|


E|-15---15-14-15------------|--------12---14---14---14---14---|-14--12--14------------|
B|--------------------------|---------------------------------|-----------------------|
G|-------------------%------|-%-------------------------------|----------------%------|
D|-------------------%------|-%-------------------------------|----------------%------|
A|--------------------------|---------------------------------|-----------------------|
E|--------------------------|---------------------------------|-----------------------|


E|-------------12----14---15---|-15----14----12---12-----|-14--12--14------------|-----------------------------|
B|-------12--------------------|-------------------------|-----------------------|-------12----12----12---12---|
G|-%---------------------------|-------------------------|----------------%------|-%---------------------------|
D|-%---------------------------|-------------------------|----------------%------|-%---------------------------|
A|-----------------------------|-------------------------|-----------------------|-----------------------------|
E|-----------------------------|-------------------------|-----------------------|-----------------------------|


E|-12------------|---------|---------|---------|---------|---------|---------|---------|
B|---------------|---------|---------|---------|---------|---------|---------|---------|
G|---------%-----|-%-------|-%-------|-%-------|-%-------|-%-------|-%-------|-%-------|
D|---------%-----|-%-------|-%-------|-%-------|-%-------|-%-------|-%-------|-%-------|
A|---------------|---------|---------|---------|---------|---------|---------|---------|
E|---------------|---------|---------|---------|---------|---------|---------|---------|


E|---------|---------|---------|---------|---------|---------|---------|---------|---------|
B|---------|---------|---------|---------|---------|---------|---------|---------|---------|
G|-%-------|-%-------|-%-------|-%-------|-%-------|-%-------|-%-------|-%-------|-%-------|
D|-%-------|-%-------|-%-------|-%-------|-%-------|-%-------|-%-------|-%-------|-%-------|
A|---------|---------|---------|---------|---------|---------|---------|---------|---------|
E|---------|---------|---------|---------|---------|---------|---------|---------|---------|


E|---------|---------|---------|---------|---------|---------|---------|---------|---------|
B|---------|---------|---------|---------|---------|---------|---------|---------|---------|
G|-%-------|-%-------|-%-------|-%-------|-%-------|-%-------|-%-------|-%-------|-%-------|
D|-%-------|-%-------|-%-------|-%-------|-%-------|-%-------|-%-------|-%-------|-%-------|
A|---------|---------|---------|---------|---------|---------|---------|---------|---------|
E|---------|---------|---------|---------|---------|---------|---------|---------|---------|


E|---------|---------|---------|---------|---------|---------|---------|---------|---------|
B|---------|---------|---------|---------|---------|---------|---------|---------|---------|
G|-%-------|-%-------|-%-------|-%-------|-%-------|-%-------|-%-------|-%-------|-%-------|
D|-%-------|-%-------|-%-------|-%-------|-%-------|-%-------|-%-------|-%-------|-%-------|
A|---------|---------|---------|---------|---------|---------|---------|---------|---------|
E|---------|---------|---------|---------|---------|---------|---------|---------|---------|


E|---------|---------|---------|---------|---------|---------|---------|---------|---------|
B|---------|---------|---------|---------|---------|---------|---------|---------|---------|
G|-%-------|-%-------|-%-------|-%-------|-%-------|-%-------|-%-------|-%-------|-%-------|
D|-%-------|-%-------|-%-------|-%-------|-%-------|-%-------|-%-------|-%-------|-%-------|
A|---------|---------|---------|---------|---------|---------|---------|---------|---------|
E|---------|---------|---------|---------|---------|---------|---------|---------|---------|


E|---------|---------|---------|---------|---------|---------|---------|---------|---------|
B|---------|---------|---------|---------|---------|---------|---------|---------|---------|
G|-%-------|-%-------|-%-------|-%-------|-%-------|-%-------|-%-------|-%-------|-%-------|
D|-%-------|-%-------|-%-------|-%-------|-%-------|-%-------|-%-------|-%-------|-%-------|
A|---------|---------|---------|---------|---------|---------|---------|---------|---------|
E|---------|---------|---------|---------|---------|---------|---------|---------|---------|


E|---------|---------|---------|---------|---------|---------|---------|---------|---------|
B|---------|---------|---------|---------|---------|---------|---------|---------|---------|
G|-%-------|-%-------|-%-------|-%-------|-%-------|-%-------|-%-------|-%-------|-%-------|
D|-%-------|-%-------|-%-------|-%-------|-%-------|-%-------|-%-------|-%-------|-%-------|
A|---------|---------|---------|---------|---------|---------|---------|---------|---------|
E|---------|---------|---------|---------|---------|---------|---------|---------|---------|


E|---------|---------|---------|---------|
B|---------|---------|---------|---------|
G|-%-------|-%-------|-%-------|-%-------|
D|-%-------|-%-------|-%-------|-%-------|
A|---------|---------|---------|---------|
E|---------|---------|---------|---------|

    

Nézd meg a videót és ismerd meg a leggyorsabb utat, hogyan tanulhatod meg kedvenc számaid gitáron!