Hogyan játszd el gitáron a Metallica – Damage inc dalt?

Metallica Damage inc – GITÁR PRO TAB, KOTTA, AKKORDOK

Kotta típusa: Voice

(Általában egy zeneszám minden kottája: gitár, szólógitár, basszusgitár, ének, zongora, dob stb. megtalálható az oldalon, de mindegyik egy külön bejegyzésben. Ha egy másik hangszer gitártabos kottáját keresed, akkor az oldal alján vagy a keresőben megtalálod. Sokszor a zenekar tagjának a neve lesz a kotta kategóriája.)

        


E|---------|---------|---------|---------|---------|---------|---------|---------|---------|
B|---------|---------|---------|---------|---------|---------|---------|---------|---------|
G|-%-------|-%-------|-%-------|-%-------|-%-------|-%-------|-%-------|-%-------|-%-------|
D|-%-------|-%-------|-%-------|-%-------|-%-------|-%-------|-%-------|-%-------|-%-------|
A|---------|---------|---------|---------|---------|---------|---------|---------|---------|
E|---------|---------|---------|---------|---------|---------|---------|---------|---------|


E|---------|---------|---------|---------|---------|---------|---------|---------|---------|
B|---------|---------|---------|---------|---------|---------|---------|---------|---------|
G|-%-------|-%-------|-%-------|-%-------|-%-------|-%-------|-%-------|-%-------|-%-------|
D|-%-------|-%-------|-%-------|-%-------|-%-------|-%-------|-%-------|-%-------|-%-------|
A|---------|---------|---------|---------|---------|---------|---------|---------|---------|
E|---------|---------|---------|---------|---------|---------|---------|---------|---------|


E|---------|---------|---------|---------|---------|---------|---------|---------|---------|
B|---------|---------|---------|---------|---------|---------|---------|---------|---------|
G|-%-------|-%-------|-%-------|-%-------|-%-------|-%-------|-%-------|-%-------|-%-------|
D|-%-------|-%-------|-%-------|-%-------|-%-------|-%-------|-%-------|-%-------|-%-------|
A|---------|---------|---------|---------|---------|---------|---------|---------|---------|
E|---------|---------|---------|---------|---------|---------|---------|---------|---------|


E|---------|---------|---------|---------|---------|---------|---------|---------|---------|
B|---------|---------|---------|---------|---------|---------|---------|---------|---------|
G|-%-------|-%-------|-%-------|-%-------|-%-------|-%-------|-%-------|-%-------|-%-------|
D|-%-------|-%-------|-%-------|-%-------|-%-------|-%-------|-%-------|-%-------|-%-------|
A|---------|---------|---------|---------|---------|---------|---------|---------|---------|
E|---------|---------|---------|---------|---------|---------|---------|---------|---------|


E|---------|---------|---------|---------|---------|---------|---------|---------|---------------|
B|---------|---------|---------|---------|---------|---------|---------|---------|---------------|
G|-%-------|-%-------|-%-------|-%-------|-%-------|-%-------|-%-------|-%-------|-%------%------|
D|-%-------|-%-------|-%-------|-%-------|-%-------|-%-------|-%-------|-%-------|-%------%------|
A|---------|---------|---------|---------|---------|---------|---------|---------|---------------|
E|---------|---------|---------|---------|---------|---------|---------|---------|---------------|


E|---------|---------|---------|---------|---------|---------|---------|---------|--------|
B|---------|---------|---------|---------|---------|---------|---------|---------|--------|
G|-%-------|-%-------|-%-------|-%-------|-%-------|-%-------|-%-------|-%-------|-%------|
D|-%-------|-%-------|-%-------|-%-------|-%-------|-%-------|-%-------|-%-------|-%------|
A|---------|---------|---------|---------|---------|---------|---------|---------|--------|
E|---------|---------|---------|---------|---------|---------|---------|---------|--------|


E|-12---12---12---12---15---12---10---12---|-12-----------------|-12---12---12---12---15---12---10---12---|
B|-----------------------------------------|--------------------|-----------------------------------------|
G|-----------------------------------------|-------%-----%------|-----------------------------------------|
D|-----------------------------------------|-------%-----%------|-----------------------------------------|
A|-----------------------------------------|--------------------|-----------------------------------------|
E|-----------------------------------------|--------------------|-----------------------------------------|


E|-13-----12----------|-12---12---12---12---15---12---10---12---|-12----------------------|
B|--------------------|-----------------------------------------|--------------------12---|
G|--------------%-----|-----------------------------------------|-------%-----%-----------|
D|--------------%-----|-----------------------------------------|-------%-----%-----------|
A|--------------------|-----------------------------------------|-------------------------|
E|--------------------|-----------------------------------------|-------------------------|


E|-12---12---12---12---15---12---10---12---|-10------|-12---12----12---15---12---10---12---|
B|-----------------------------------------|---------|-------------------------------------|
G|-----------------------------------------|---------|-------------------------------------|
D|-----------------------------------------|---------|-------------------------------------|
A|-----------------------------------------|---------|-------------------------------------|
E|-----------------------------------------|---------|-------------------------------------|


E|-12-----------------|-12---12----12---15---12---10---12---|-13-----12----------|-12---12---12---12---15---12---10---12---|
B|--------------------|-------------------------------------|--------------------|-----------------------------------------|
G|-------%-----%------|-------------------------------------|--------------%-----|-----------------------------------------|
D|-------%-----%------|-------------------------------------|--------------%-----|-----------------------------------------|
A|--------------------|-------------------------------------|--------------------|-----------------------------------------|
E|--------------------|-------------------------------------|--------------------|-----------------------------------------|


E|-12----------------------|-12---12---12---12---15---12---10---12---|-10------|-14----------14----------|
B|--------------------12---|-----------------------------------------|---------|-------------------------|
G|-------%-----%-----------|-----------------------------------------|---------|-------%-----------%-----|
D|-------%-----%-----------|-----------------------------------------|---------|-------%-----------%-----|
A|-------------------------|-----------------------------------------|---------|-------------------------|
E|-------------------------|-----------------------------------------|---------|-------------------------|


E|-14----------14----------|-14-----14-----14------|---------|-14----------14----------|
B|-------------------------|-----------------------|---------|-------------------------|
G|-------%-----------%-----|-------------------%---|-%-------|-------%-----------%-----|
D|-------%-----------%-----|-------------------%---|-%-------|-------%-----------%-----|
A|-------------------------|-----------------------|---------|-------------------------|
E|-------------------------|-----------------------|---------|-------------------------|


E|-14----------14----------|-14-----14-----14------|----------------------------------------------|
B|-------------------------|-----------------------|----------------------------------------------|
G|-------%-----------%-----|-------------------%---|----------------------------------------------|
D|-------%-----------%-----|-------------------%---|-12---12-12---12--12---12-12---12---12---12---|
A|-------------------------|-----------------------|----------------------------------------------|
E|-------------------------|-----------------------|----------------------------------------------|


E|---------|---------|---------|---------|-12---12---12---12---15---12---10---12---|
B|---------|---------|---------|---------|-----------------------------------------|
G|-%-------|-%-------|-%-------|-%-------|-----------------------------------------|
D|-%-------|-%-------|-%-------|-%-------|-----------------------------------------|
A|---------|---------|---------|---------|-----------------------------------------|
E|---------|---------|---------|---------|-----------------------------------------|


E|-12-----------------|-12---12---12---12---15---12---10---12---|-13-----12----------|
B|--------------------|-----------------------------------------|--------------------|
G|-------%-----%------|-----------------------------------------|--------------%-----|
D|-------%-----%------|-----------------------------------------|--------------%-----|
A|--------------------|-----------------------------------------|--------------------|
E|--------------------|-----------------------------------------|--------------------|


E|-12---12---12---12---15---12---10---12---|-12-----------------|-12---12---12---12---15---12---10---12---|
B|-----------------------------------------|--------------------|-----------------------------------------|
G|-----------------------------------------|-------%-----%------|-----------------------------------------|
D|-----------------------------------------|-------%-----%------|-----------------------------------------|
A|-----------------------------------------|--------------------|-----------------------------------------|
E|-----------------------------------------|--------------------|-----------------------------------------|


E|-10------|-12---12----12---15---12---10---12---|-12-----------------|-12---12----12---15---12---10---12---|
B|---------|-------------------------------------|--------------------|-------------------------------------|
G|---------|-------------------------------------|-------%-----%------|-------------------------------------|
D|---------|-------------------------------------|-------%-----%------|-------------------------------------|
A|---------|-------------------------------------|--------------------|-------------------------------------|
E|---------|-------------------------------------|--------------------|-------------------------------------|


E|-13-----12----------|-12---12---12---12---15---12---10---12---|-12-----------------|
B|--------------------|-----------------------------------------|--------------------|
G|--------------%-----|-----------------------------------------|-------%-----%------|
D|--------------%-----|-----------------------------------------|-------%-----%------|
A|--------------------|-----------------------------------------|--------------------|
E|--------------------|-----------------------------------------|--------------------|


E|-12---12---12---12---15---12---10---12---|-10------|-14----------14----------|-14----------14----------|
B|-----------------------------------------|---------|-------------------------|-------------------------|
G|-----------------------------------------|---------|-------%-----------%-----|-------%-----------%-----|
D|-----------------------------------------|---------|-------%-----------%-----|-------%-----------%-----|
A|-----------------------------------------|---------|-------------------------|-------------------------|
E|-----------------------------------------|---------|-------------------------|-------------------------|


E|-14-----14-----14------|---------|-14----------14----------|-14----------14----------|
B|-----------------------|---------|-------------------------|-------------------------|
G|-------------------%---|-%-------|-------%-----------%-----|-------%-----------%-----|
D|-------------------%---|-%-------|-------%-----------%-----|-------%-----------%-----|
A|-----------------------|---------|-------------------------|-------------------------|
E|-----------------------|---------|-------------------------|-------------------------|


E|-14-----14-----14------|----------------------------------------------|---------|
B|-----------------------|----------------------------------------------|---------|
G|-------------------%---|----------------------------------------------|-%-------|
D|-------------------%---|-12---12-12---12--12---12-12---12---12---12---|-%-------|
A|-----------------------|----------------------------------------------|---------|
E|-----------------------|----------------------------------------------|---------|


E|---------|---------|---------|---------|---------|---------|---------|---------|---------|
B|---------|---------|---------|---------|---------|---------|---------|---------|---------|
G|-%-------|-%-------|-%-------|-%-------|-%-------|-%-------|-%-------|-%-------|-%-------|
D|-%-------|-%-------|-%-------|-%-------|-%-------|-%-------|-%-------|-%-------|-%-------|
A|---------|---------|---------|---------|---------|---------|---------|---------|---------|
E|---------|---------|---------|---------|---------|---------|---------|---------|---------|


E|---------|---------|---------|---------|---------|---------|---------|-------12----13----10----|
B|---------|---------|---------|---------|---------|---------|---------|-------------------------|
G|-%-------|-%-------|-%-------|-%-------|-%-------|-%-------|-%-------|-%-----------------------|
D|-%-------|-%-------|-%-------|-%-------|-%-------|-%-------|-%-------|-%-----------------------|
A|---------|---------|---------|---------|---------|---------|---------|-------------------------|
E|---------|---------|---------|---------|---------|---------|---------|-------------------------|


E|-12----13---13---13----------|-------12----13----10----|-12---13----13---13----------|
B|-----------------------------|-------------------------|-----------------------------|
G|-----------------------%-----|-%-----------------------|-----------------------%-----|
D|-----------------------%-----|-%-----------------------|-----------------------%-----|
A|-----------------------------|-------------------------|-----------------------------|
E|-----------------------------|-------------------------|-----------------------------|


E|-------12----13----10----|-12----13---13---13----------|-------12----13----10----|
B|-------------------------|-----------------------------|-------------------------|
G|-%-----------------------|-----------------------%-----|-%-----------------------|
D|-%-----------------------|-----------------------%-----|-%-----------------------|
A|-------------------------|-----------------------------|-------------------------|
E|-------------------------|-----------------------------|-------------------------|


E|-12----------10----------|-------------------------------------------------|---------|
B|-------13----------12----|-------------------------------------------------|---------|
G|-------------------------|-12---12---12---12---12---12---12---%-------%----|-%-------|
D|-------------------------|------------------------------------%-------%----|-%-------|
A|-------------------------|-------------------------------------------------|---------|
E|-------------------------|-------------------------------------------------|---------|


E|---------|---------|---------|---------|---------|---------|---------|---------|---------|
B|---------|---------|---------|---------|---------|---------|---------|---------|---------|
G|-%-------|-%-------|-%-------|-%-------|-%-------|-%-------|-%-------|-%-------|-%-------|
D|-%-------|-%-------|-%-------|-%-------|-%-------|-%-------|-%-------|-%-------|-%-------|
A|---------|---------|---------|---------|---------|---------|---------|---------|---------|
E|---------|---------|---------|---------|---------|---------|---------|---------|---------|


E|---------|---------|---------|---------|---------|---------|---------|---------|---------|
B|---------|---------|---------|---------|---------|---------|---------|---------|---------|
G|-%-------|-%-------|-%-------|-%-------|-%-------|-%-------|-%-------|-%-------|-%-------|
D|-%-------|-%-------|-%-------|-%-------|-%-------|-%-------|-%-------|-%-------|-%-------|
A|---------|---------|---------|---------|---------|---------|---------|---------|---------|
E|---------|---------|---------|---------|---------|---------|---------|---------|---------|


E|---------|---------|---------|---------|---------|---------|---------|---------|---------|
B|---------|---------|---------|---------|---------|---------|---------|---------|---------|
G|-%-------|-%-------|-%-------|-%-------|-%-------|-%-------|-%-------|-%-------|-%-------|
D|-%-------|-%-------|-%-------|-%-------|-%-------|-%-------|-%-------|-%-------|-%-------|
A|---------|---------|---------|---------|---------|---------|---------|---------|---------|
E|---------|---------|---------|---------|---------|---------|---------|---------|---------|


E|---------|---------|---------|---------|---------|---------|---------|---------|---------|
B|---------|---------|---------|---------|---------|---------|---------|---------|---------|
G|-%-------|-%-------|-%-------|-%-------|-%-------|-%-------|-%-------|-%-------|-%-------|
D|-%-------|-%-------|-%-------|-%-------|-%-------|-%-------|-%-------|-%-------|-%-------|
A|---------|---------|---------|---------|---------|---------|---------|---------|---------|
E|---------|---------|---------|---------|---------|---------|---------|---------|---------|


E|---------|---------|---------|---------|---------|---------|---------|---------|---------|
B|---------|---------|---------|---------|---------|---------|---------|---------|---------|
G|-%-------|-%-------|-%-------|-%-------|-%-------|-%-------|-%-------|-%-------|-%-------|
D|-%-------|-%-------|-%-------|-%-------|-%-------|-%-------|-%-------|-%-------|-%-------|
A|---------|---------|---------|---------|---------|---------|---------|---------|---------|
E|---------|---------|---------|---------|---------|---------|---------|---------|---------|


E|---------|---------|---------|---------|---------|---------|-12---12---12---12---15---12---10---12---|
B|---------|---------|---------|---------|---------|---------|-----------------------------------------|
G|-%-------|-%-------|-%-------|-%-------|-%-------|-%-------|-----------------------------------------|
D|-%-------|-%-------|-%-------|-%-------|-%-------|-%-------|-----------------------------------------|
A|---------|---------|---------|---------|---------|---------|-----------------------------------------|
E|---------|---------|---------|---------|---------|---------|-----------------------------------------|


E|-12------------|-12---12---12---12---15---12---10---12---|-13-----12----------|-12---12---12---12---15---12---10---12---|
B|---------------|-----------------------------------------|--------------------|-----------------------------------------|
G|-------%-------|-----------------------------------------|--------------%-----|-----------------------------------------|
D|-------%-------|-----------------------------------------|--------------%-----|-----------------------------------------|
A|---------------|-----------------------------------------|--------------------|-----------------------------------------|
E|---------------|-----------------------------------------|--------------------|-----------------------------------------|


E|-12---------------------|-12---12---12---12---15---12---10---12---|-10------|-12---12----12---15---12---10---12---|
B|-------------------12---|-----------------------------------------|---------|-------------------------------------|
G|--------%-----%---------|-----------------------------------------|---------|-------------------------------------|
D|--------%-----%---------|-----------------------------------------|---------|-------------------------------------|
A|------------------------|-----------------------------------------|---------|-------------------------------------|
E|------------------------|-----------------------------------------|---------|-------------------------------------|


E|-12------------|-12---12----12---15---12---10---12---|-13-----12----------|-12---12---12---12---15---12---10---12---|
B|---------------|-------------------------------------|--------------------|-----------------------------------------|
G|--------%------|-------------------------------------|--------------%-----|-----------------------------------------|
D|--------%------|-------------------------------------|--------------%-----|-----------------------------------------|
A|---------------|-------------------------------------|--------------------|-----------------------------------------|
E|---------------|-------------------------------------|--------------------|-----------------------------------------|


E|-12---------------------|-12---12---12---12---15---12---10---12---|-10------|-14----------14----------|
B|-------------------12---|-----------------------------------------|---------|-------------------------|
G|--------%-----%---------|-----------------------------------------|---------|-------%-----------%-----|
D|--------%-----%---------|-----------------------------------------|---------|-------%-----------%-----|
A|------------------------|-----------------------------------------|---------|-------------------------|
E|------------------------|-----------------------------------------|---------|-------------------------|


E|-14----------14----------|-14-----14-----14------|---------|-14----------14----------|
B|-------------------------|-----------------------|---------|-------------------------|
G|-------%-----------%-----|-------------------%---|-%-------|-------%-----------%-----|
D|-------%-----------%-----|-------------------%---|-%-------|-------%-----------%-----|
A|-------------------------|-----------------------|---------|-------------------------|
E|-------------------------|-----------------------|---------|-------------------------|


E|-14----------14----------|-14-----14-----14------|----------------------------------------------|
B|-------------------------|-----------------------|----------------------------------------------|
G|-------%-----------%-----|-------------------%---|----------------------------------------------|
D|-------%-----------%-----|-------------------%---|-12---12-12---12--12---12-12---12---12---12---|
A|-------------------------|-----------------------|----------------------------------------------|
E|-------------------------|-----------------------|----------------------------------------------|


E|---------|---------|---------|---------|
B|---------|---------|---------|---------|
G|-%-------|-%-------|-%-------|-%-------|
D|-%-------|-%-------|-%-------|-%-------|
A|---------|---------|---------|---------|
E|---------|---------|---------|---------|

    

Nézd meg a videót és ismerd meg a leggyorsabb utat, hogyan tanulhatod meg kedvenc számaid gitáron!