Hogyan játszd el gitáron a Metallica – Dont Tread On Me dalt?

Metallica Dont Tread On Me – GITÁR PRO TAB, KOTTA, AKKORDOK

Kotta típusa: Lars Ulrich Drums

(Általában egy zeneszám minden kottája: gitár, szólógitár, basszusgitár, ének, zongora, dob stb. megtalálható az oldalon, de mindegyik egy külön bejegyzésben. Ha egy másik hangszer gitártabos kottáját keresed, akkor az oldal alján vagy a keresőben megtalálod. Sokszor a zenekar tagjának a neve lesz a kotta kategóriája.)

        


C|-----------------------------------------|-----------------------------------------|
C|-----------------------------------------|-----------------------------------------|
C|----------------%-----------------%------|----------------%-----------------%------|
C|----------------%------41----41---%------|----------------%------41----41---%------|
C|-40---40---40----------------------------|-40---40---40----------------------------|
C|-----------------------36----36----------|-----------------------36----36----------|


C|-----------------------------------------|-----------------------------------------|
C|-----------------------------------------|-----------------------------------------|
C|----------------%-----------------%------|----------------%-----------------%------|
C|----------------%------41----41---%------|----------------%------41----41---%------|
C|-40---40---40----------------------------|-40---40---40----------------------------|
C|-----------------------36----36----------|-----------------------36----36----------|


C|-----------------------------------------|-----------------------|-------------------------------------|
C|-----------------------------------------|-----------------------|-------------------------------------|
C|----------------%-----------------%------|----------------%------|------------%-----------------%------|
C|----------------%------41----41---%------|----------------%------|-41----41---%------41----41---%------|
C|-40---40---40----------------------------|-40---40---40----------|-------------------------------------|
C|-----------------------36----36----------|-----------------------|-36----36----------36----36----------|


C|-------------------------------------|-----------------------------------------|-----------------------------------------|
C|-------------------------------------|-----------------------------------------|-----------------------------------------|
C|------------%-----------------%------|----------------%-----------------%------|----------------%-----------------%------|
C|-41----41---%------41----41---%------|----------------%------41----41---%------|----------------%------41----41---%------|
C|-------------------------------------|-40---40---40----------------------------|-40---40---40----------------------------|
C|-36----36----------36----36----------|-----------------------36----36----------|-----------------------36----36----------|


C|-----------------------------------------|-----------------------------------------|
C|-----------------------------------------|-----------------------------------------|
C|----------------%-----------------%------|----------------%-----------------%------|
C|----------------%------41----41---%------|----------------%------41----41---%------|
C|-40---40---40----------------------------|-40---40---40----------------------------|
C|-----------------------36----36----------|-----------------------36----36----------|


C|-----------------------------------------|-49----------------------------------------------------------|
C|-----------------------------------------|-------------------------------------------------------------|
C|----------------%-----------------%------|------42---42---42---42---42---42---42---42---42---42---42---|
C|----------------%------41----41---%------|-------------------------------------------------------------|
C|-40---40---40----------------------------|-40---40---40---40---40---40---40---40---40---40---40---40---|
C|-----------------------36----36----------|-------------------------------------------------------------|


C|-49----------------------------------------------------------|-------------------------------------------------------------|
C|-------------------------------------------------------------|-------------------------------------------------------------|
C|------42---42---42---42---42---42---42---42---42---42---42---|-42---42---42---42---42---42---42---42---42---42---42---42---|
C|-------------------------------------------------------------|----------------40-------------------------------------------|
C|----------------40----------------------------40-------------|----------------40----------------------------40-------------|
C|-36----------------------------36----------------------------|-36----------------------------36----------------------------|


C|-------------------------------------------------------------|----------------------------------------------49-------------|
C|-------------------------------------------------------------|----------------------------------------------49-------------|
C|-42---42---42---42---42---42---42---42---42---42---42---42---|-42---42---42---42---42---42---42---42---42--------42---42---|
C|----------------40-------------------------------------------|----------------40-------------------------------------------|
C|----------------40----------------------------40-------------|----------------40----------------------------40-------------|
C|-36----------------------------36----------------------------|-36----------------------------36----------------------------|


C|----------------49-------------------------------------------|-------------------------------------------------------------|
C|----------------49-------------------------------------------|-------------------------------------------------------------|
C|-42---42---42--------42---42---42---42---42---42---42---42---|-42---42---42---42---42---42---42---42---42---42---42---42---|
C|-------------------------------------------------------------|-------------------------------------------------------------|
C|----------------40----------------------------40-------------|----------------40----------------------------40-------------|
C|-36----------------------------36----------------------------|-36----------------------------36----------------------------|


C|----------------49-------------------------------------------|-------------------------------------------------------------|
C|----------------49-------------------------------------------|-------------------------------------------------------------|
C|-42---42---42--------42---42---42---42---42---42---42---42---|-42---42---42---42---42---42---42---42---42---42---42---42---|
C|-------------------------------------------------------------|-------------------------------------------------------------|
C|----------------40----------------------------40-------------|----------------40----------------------------40-------------|
C|-36----------------------------36----------------------------|-36----------------------------36----------------------------|


C|-------------------------------------------------------------|-------------------------------------------------------------|
C|-------------------------------------------------------------|-------------------------------------------------------------|
C|-42---42---42---42---42---42---42---42---42---42---42---42---|-42---42---42---42---42---42---42---42---42---42---42---42---|
C|-------------------------------------------------------------|-------------------------------------------------------------|
C|----------------40----------------------------40-------------|----------------40----------------------------40-------------|
C|-36----------------------------36----------------------------|-36----------------------------36----------------------------|


C|-------------------------------------------------------------|-------------------------------------------------------------|
C|-------------------------------------------------------------|-------------------------------------------------------------|
C|-42---42---42---42---42---42---42---42---42---42---42---42---|-42---42---42---42---42---42---42---42---42---42---42---42---|
C|-------------------------------------------------------------|-------------------------------------------------------------|
C|----------------40----------------------------40-------------|----------------40----------------------------40-------------|
C|-36----------------------------36----------------------------|-36----------------------------36----------------------------|


C|-------------------------------------------------------------|-------------------------------------------------------------|
C|-------------------------------------------------------------|-------------------------------------------------------------|
C|-42---42---42---42---42---42---42---42---42---42---42---42---|-42---42---42---42---42---42---42---42---42---42---42---42---|
C|-------------------------------------------------------------|-------------------------------------------------------------|
C|----------------40----------------------------40-------------|----------------40----------------------------40-------------|
C|-36----------------------------36----------------------------|-36----------------------------36----------------------------|


C|-------------------------------------------------------------|-------------------------------------------------------------|
C|-------------------------------------------------------------|-------------------------------------------------------------|
C|-42---42---42---42---42---42---42---42---42---42---42---42---|-42---42---42---42---42---42---42---42---42---42---42---42---|
C|-------------------------------------------------------------|-------------------------------------------------------------|
C|----------------40----------------------------40-------------|----------------40----------------------------40-------------|
C|-36----------------------------36----------------------------|-36----------------------------36----------------------------|


C|-------------------------------------------------------------|-------------------------------------------------------------|
C|-------------------------------------------------------------|-------------------------------------------------------------|
C|-42---42---42---42---42---42---42---42---42---42---42---42---|-42---42---42---42---42---42---42---42---42---42---42---42---|
C|-------------------------------------------------------------|-------------------------------------------------------------|
C|----------------40----------------------------40-------------|----------------40----------------------------40-------------|
C|-36----------------------------36----------------------------|-36----------------------------36----------------------------|


C|-------------------------------------------------------------|-------------------------------------------------------------|
C|-------------------------------------------------------------|-------------------------------------------------------------|
C|-42---42---42---42---42---42---42---42---42---42---42---42---|-42---42---42---42---42---42---42---42---42---42---42---42---|
C|-------------------------------------------------------------|-------------------------------------------------------------|
C|----------------40----------------------------40-------------|----------------40----------------------------40-------------|
C|-36----------------------------36----------------------------|-36----------------------------36----------------------------|


C|-------------------------------------------------------------|-------------------------------------------------------------|
C|-------------------------------------------------------------|-------------------------------------------------------------|
C|-42---42---42---42---42---42---42---42---42---42---42---42---|-42---42---42---42---42---42---42---42---42---42---42---42---|
C|-------------------------------------------------------------|-------------------------------------------------------------|
C|----------------40----------------------------40-------------|----------------40----------------------------40-------------|
C|-36----------------------------36----------------------------|-36----------------------------36----------------------------|


C|-------------------------------------------------------------|-------------------------------------------------------------|
C|-------------------------------------------------------------|-------------------------------------------------------------|
C|-42---42---42---42---42---42---42---42---42---42---42---42---|-42---42---42---42---42---42---42---42---42---42---42---42---|
C|-------------------------------------------------------------|-------------------------------------------------------------|
C|----------------40----------------------------40-------------|----------------40----------------------------40-------------|
C|-36----------------------------36----------------------------|-36----------------------------36----------------------------|


C|-------------------------------------------------------------|-------------------------------------------------------------|
C|-------------------------------------------------------------|-------------------------------------------------------------|
C|-42---42---42---42---42---42---42---42---42---42---42---42---|-42---42---42---42---42---42---42---42---42---42---42---42---|
C|-------------------------------------------------------------|-------------------------------------------------------------|
C|----------------40----------------------------40-------------|----------------40----------------------------40-------------|
C|-36----------------------------36----------------------------|-36----------------------------36----------------------------|


C|-------------------------------------------------------------|-------------------------------------------------------------|
C|-------------------------------------------------------------|-------------------------------------------------------------|
C|-42---42---42---42---42---42---42---42---42---42---42---42---|-42---42---42---42---42---42---42---42---42---42---42---42---|
C|-------------------------------------------------------------|-------------------------------------------------------------|
C|----------------40----------------------------40-------------|----------------40----------------------------40-------------|
C|-36----------------------------36----------------------------|-36----------------------------36----------------------------|


C|-------------------------------------------------------------|-------------------------------------------------------------|
C|-------------------------------------------------------------|-------------------------------------------------------------|
C|-42---42---42---42---42---42---42---42---42---42---42---42---|-42---42---42---42---42---42---42---42---42---42---42---42---|
C|-------------------------------------------------------------|-------------------------------------------------------------|
C|----------------40----------------------------40-------------|----------------40----------------------------40-------------|
C|-36----------------------------36----------------------------|-36----------------------------36----------------------------|


C|-------------------------------------------------------------|-------------------------------------------------------------|
C|-------------------------------------------------------------|-------------------------------------------------------------|
C|-42---42---42---42---42---42---42---42---42---42---42---42---|-42---42---42---42---42---42---42---42---42---42---42---42---|
C|-------------------------------------------------------------|-------------------------------------------------------------|
C|----------------40----------------------------40-------------|----------------40----------------------------40-------------|
C|-36----------------------------36----------------------------|-36----------------------------36----------------------------|


C|-------------------------------------------------------------|-------------------------------------------------------------|
C|-------------------------------------------------------------|-------------------------------------------------------------|
C|-42---42---42---42---42---42---42---42---42---42---42---42---|-42---42---42---42---42---42---42---42---42---42---42---42---|
C|-------------------------------------------------------------|-------------------------------------------------------------|
C|----------------40----------------------------40-------------|----------------40----------------------------40-------------|
C|-36----------------------------36----------------------------|-36----------------------------36----------------------------|


C|--------------|-------------------------------------------------------------|-------------------------------------------------------------|
C|--------------|-------------------------------------------------------------|-------------------------------------------------------------|
C|-%------%-----|-42---42---42---42---42---42---42---42---42---42---42---42---|-42---42---42---42---42---42---42---42---42---42---42---42---|
C|-%------%-----|-------------------------------------------------------------|-------------------------------------------------------------|
C|--------------|----------------40----------------------------40-------------|----------------40----------------------------40-------------|
C|--------------|-36----------------------------36----------------------------|-36----------------------------36----------------------------|


C|-------------------------------------------------------------|-------------------------------------------------------------|
C|-------------------------------------------------------------|-------------------------------------------------------------|
C|-42---42---42---42---42---42---42---42---42---42---42---42---|-42---42---42---42---42---42---42---42---42---42---42---42---|
C|-------------------------------------------------------------|-------------------------------------------------------------|
C|----------------40----------------------------40-------------|----------------40----------------------------40-------------|
C|-36----------------------------36----------------------------|-36----------------------------36----------------------------|


C|-------------------------------------------------------------|-------------------------------------------------------------|
C|-------------------------------------------------------------|-------------------------------------------------------------|
C|-42---42---42---42---42---42---42---42---42---42---42---42---|-42---42---42---42---42---42---42---42---42---42---42---42---|
C|-------------------------------------------------------------|-------------------------------------------------------------|
C|----------------40----------------------------40-------------|----------------40----------------------------40-------------|
C|-36----------------------------36----------------------------|-36----------------------------36----------------------------|


C|-------------------------------------------------------------|-------------------------------------------------------------|
C|-------------------------------------------------------------|-------------------------------------------------------------|
C|-42---42---42---42---42---42---42---42---42---42---42---42---|-42---42---42---42---42---42---42---42---42---42---42---42---|
C|-------------------------------------------------------------|-------------------------------------------------------------|
C|----------------40----------------------------40-------------|----------------40----------------------------40-------------|
C|-36----------------------------36----------------------------|-36----------------------------36----------------------------|


C|-------------------------------------------------------------|-------------------------------------------------------------|
C|-------------------------------------------------------------|-------------------------------------------------------------|
C|-42---42---42---42---42---42---42---42---42---42---42---42---|-42---42---42---42---42---42---42---42---42---42---42---42---|
C|-------------------------------------------------------------|-------------------------------------------------------------|
C|----------------40----------------------------40-------------|----------------40----------------------------40-------------|
C|-36----------------------------36----------------------------|-36----------------------------36----------------------------|


C|-------------------------------------------------------------|-------------------------------------------------------------|
C|-------------------------------------------------------------|-------------------------------------------------------------|
C|-42---42---42---42---42---42---42---42---42---42---42---42---|-42---42---42---42---42---42---42---42---42---42---42---42---|
C|-------------------------------------------------------------|-------------------------------------------------------------|
C|----------------40----------------------------40-------------|----------------40----------------------------40-------------|
C|-36----------------------------36----------------------------|-36----------------------------36----------------------------|


C|-------------------------------------------------------------|-------------------------------------------------------------|
C|-------------------------------------------------------------|-------------------------------------------------------------|
C|-42---42---42---42---42---42---42---42---42---42---42---42---|-42---42---42---42---42---42---42---42---42---42---42---42---|
C|-------------------------------------------------------------|-------------------------------------------------------------|
C|----------------40----------------------------40-------------|----------------40----------------------------40-------------|
C|-36----------------------------36----------------------------|-36----------------------------36----------------------------|


C|-------------------------------------------------------------|-------------------------------------------------------------|
C|-------------------------------------------------------------|-------------------------------------------------------------|
C|-42---42---42---42---42---42---42---42---42---42---42---42---|-42---42---42---42---42---42---42---42---42---42---42---42---|
C|-------------------------------------------------------------|-------------------------------------------------------------|
C|----------------40----------------------------40-------------|----------------40----------------------------40-------------|
C|-36----------------------------36----------------------------|-36----------------------------36----------------------------|


C|-------------------------------------------------------------|-------------------------------------------------------------|
C|-------------------------------------------------------------|-------------------------------------------------------------|
C|-42---42---42---42---42---42---42---42---42---42---42---42---|-42---42---42---42---42---42---42---42---42---42---42---42---|
C|-------------------------------------------------------------|-------------------------------------------------------------|
C|----------------40----------------------------40-------------|----------------40----------------------------40-------------|
C|-36----------------------------36----------------------------|-36----------------------------36----------------------------|


C|-------------------------------------------------------------|-------------------------------------------------------------|
C|-------------------------------------------------------------|-------------------------------------------------------------|
C|-42---42---42---42---42---42---42---42---42---42---42---42---|-42---42---42---42---42---42---42---42---42---42---42---42---|
C|-------------------------------------------------------------|-------------------------------------------------------------|
C|----------------40----------------------------40-------------|----------------40----------------------------40-------------|
C|-36----------------------------36----------------------------|-36----------------------------36----------------------------|


C|-------------------------------------------------------------|-------------------------------------------------------------|
C|-------------------------------------------------------------|-------------------------------------------------------------|
C|-42---42---42---42---42---42---42---42---42---42---42---42---|-42---42---42---42---42---42---42---42---42---42---42---42---|
C|-------------------------------------------------------------|-------------------------------------------------------------|
C|----------------40----------------------------40-------------|----------------40----------------------------40-------------|
C|-36----------------------------36----------------------------|-36----------------------------36----------------------------|


C|-------------------------------------------------------------|-------------------------------------------------------------|
C|-------------------------------------------------------------|-------------------------------------------------------------|
C|-42---42---42---42---42---42---42---42---42---42---42---42---|-42---42---42---42---42---42---42---42---42---42---42---42---|
C|-------------------------------------------------------------|-------------------------------------------------------------|
C|----------------40----------------------------40-------------|----------------40----------------------------40-------------|
C|-36----------------------------36----------------------------|-36----------------------------36----------------------------|


C|-------------------------------------------------------------|-------------------------------------------------------------|
C|-------------------------------------------------------------|-------------------------------------------------------------|
C|-42---42---42---42---42---42---42---42---42---42---42---42---|-42---42---42---42---42---42---42---42---42---42---42---42---|
C|-------------------------------------------------------------|-------------------------------------------------------------|
C|----------------40----------------------------40-------------|----------------40----------------------------40-------------|
C|-36----------------------------36----------------------------|-36----------------------------36----------------------------|


C|-------------------------------------------------------------|-------------------------------------------------------------|
C|-------------------------------------------------------------|-------------------------------------------------------------|
C|-42---42---42---42---42---42---42---42---42---42---42---42---|-42---42---42---42---42---42---42---42---42---42---42---42---|
C|-------------------------------------------------------------|-------------------------------------------------------------|
C|----------------40----------------------------40-------------|----------------40----------------------------40-------------|
C|-36----------------------------36----------------------------|-36----------------------------36----------------------------|


C|-------------------------------------------------------------|-------------------------------------------------------------|
C|-------------------------------------------------------------|-------------------------------------------------------------|
C|-42---42---42---42---42---42---42---42---42---42---42---42---|-42---42---42---42---42---42---42---42---42---42---42---42---|
C|-------------------------------------------------------------|-------------------------------------------------------------|
C|----------------40----------------------------40-------------|----------------40----------------------------40-------------|
C|-36----------------------------36----------------------------|-36----------------------------36----------------------------|


C|-------------------------------------------------------------|-------------------------------------------------------------|
C|-------------------------------------------------------------|-------------------------------------------------------------|
C|-42---42---42---42---42---42---42---42---42---42---42---42---|-42---42---42---42---42---42---42---42---42---42---42---42---|
C|-------------------------------------------------------------|-------------------------------------------------------------|
C|----------------40----------------------------40-------------|----------------40----------------------------40-------------|
C|-36----------------------------36----------------------------|-36----------------------------36----------------------------|


C|-------------------------------------------------------------|-------------------------------------------------------------|
C|-------------------------------------------------------------|-------------------------------------------------------------|
C|-42---42---42---42---42---42---42---42---42---42---42---42---|-42---42---42---42---42---42---42---42---42---42---42---42---|
C|-------------------------------------------------------------|-------------------------------------------------------------|
C|----------------40----------------------------40-------------|----------------40----------------------------40-------------|
C|-36----------------------------36----------------------------|-36----------------------------36----------------------------|


C|-------------------------------------------------------------|-------------------------------------------------------------|
C|-------------------------------------------------------------|-------------------------------------------------------------|
C|-42---42---42---42---42---42---42---42---42---42---42---42---|-42---42---42---42---42---42---42---42---42---42---42---42---|
C|-------------------------------------------------------------|-------------------------------------------------------------|
C|----------------40----------------------------40-------------|----------------40----------------------------40-------------|
C|-36----------------------------36----------------------------|-36----------------------------36----------------------------|


C|-------------------------------------------------------------|-----------------------|
C|-------------------------------------------------------------|-----------------------|
C|-42---42---42---42---42---42---42---42---42---42---42---42---|-----------------------|
C|-------------------------------------------------------------|-----------------------|
C|----------------40----------------------------40-------------|-40---48---47---40-----|
C|-36----------------------------36----------------------------|-----------------------|


C|---------|
C|---------|
C|-%-------|
C|-%-------|
C|---------|
C|---------|

    

Nézd meg a videót és ismerd meg a leggyorsabb utat, hogyan tanulhatod meg kedvenc számaid gitáron!