Hogyan játszd el gitáron a MetallicA – Fade To Black dalt?

MetallicA Fade To Black – GITÁR PRO TAB, KOTTA, AKKORDOK

Kotta típusa: Guitare 12 cordes

(Általában egy zeneszám minden kottája: gitár, szólógitár, basszusgitár, ének, zongora, dob stb. megtalálható az oldalon, de mindegyik egy külön bejegyzésben. Ha egy másik hangszer gitártabos kottáját keresed, akkor az oldal alján vagy a keresőben megtalálod. Sokszor a zenekar tagjának a neve lesz a kotta kategóriája.)

        


E|---------|---------|---------|---------|---------|---------|---------|---------|---------|
B|---------|---------|---------|---------|---------|---------|---------|---------|---------|
G|-%-------|-%-------|-%-------|-%-------|-%-------|-%-------|-%-------|-%-------|-%-------|
D|-%-------|-%-------|-%-------|-%-------|-%-------|-%-------|-%-------|-%-------|-%-------|
A|---------|---------|---------|---------|---------|---------|---------|---------|---------|
E|---------|---------|---------|---------|---------|---------|---------|---------|---------|


E|---------|---------|---------|---------|---------|---------|---------|---------|---------|
B|---------|---------|---------|---------|---------|---------|---------|---------|---------|
G|-%-------|-%-------|-%-------|-%-------|-%-------|-%-------|-%-------|-%-------|-%-------|
D|-%-------|-%-------|-%-------|-%-------|-%-------|-%-------|-%-------|-%-------|-%-------|
A|---------|---------|---------|---------|---------|---------|---------|---------|---------|
E|---------|---------|---------|---------|---------|---------|---------|---------|---------|


E|---------|---------|---------|---------|---------|---------|---------|---------------------0----------------------|
B|---------|---------|---------|---------|---------|---------|---------|-0----1--------------------------------1----|
G|-%-------|-%-------|-%-------|-%-------|-%-------|-%-------|-%-------|-2---------2-------------------0---2--------|
D|-%-------|-%-------|-%-------|-%-------|-%-------|-%-------|-%-------|-2--------------2---------2-----------------|
A|---------|---------|---------|---------|---------|---------|---------|-0------------------------------------------|
E|---------|---------|---------|---------|---------|---------|---------|--------------------------------------------|


E|-----------------0----------------------|-----------------3---------3----3----|-----------------------------|
B|-1-----1---------------------------0----|-0-----3-----------------------------|-----------------0-----3-----|
G|-0-------------------------0---2--------|-0-------------------------2----0----|-0---------------0-----4-----|
D|------------2---------2-----------------|------------0---------0--------------|-------2---------------------|
A|-3--------------------------------------|-------------------------------------|------------2----------------|
E|----------------------------------------|-3-----------------------------------|-3---------------------------|


E|---------------------0----------------------|-----------------0----------------------|
B|-0----1--------------------------------1----|-1-----1---------------------------0----|
G|-2---------2-------------------0---2--------|-0-------------------------0---2--------|
D|-2--------------2---------2-----------------|------------2---------2-----------------|
A|-0------------------------------------------|-3--------------------------------------|
E|--------------------------------------------|----------------------------------------|


E|-----------------3--------------------------|---------------------------------|---------------------0----------------------|
B|-0-----3-------------------3----------------|---------------------0-----3-----|-0----1--------------------------------1----|
G|-0-------------------------0---2---0---2----|-0-------------------0-----4-----|-2---------2-------------------0---2--------|
D|------------0---------0---------------------|-2---------2---------------------|-2--------------2---------2-----------------|
A|--------------------------------------------|----------------2----------------|-0------------------------------------------|
E|-3------------------------------------------|------0--------------------------|--------------------------------------------|


E|-----------------0----------------------|-----------------3---------3----3----|-----------------------------|
B|-1-----1---------------------------0----|-0-----3-----------------------------|-----------------0-----3-----|
G|-0-------------------------0---2--------|-0-------------------------2----0----|-0---------------0-----4-----|
D|------------2---------2-----------------|------------0---------0--------------|-------2---------------------|
A|-3--------------------------------------|-------------------------------------|------------2----------------|
E|----------------------------------------|-3-----------------------------------|-3---------------------------|


E|---------------------0----------------------|-----------------0----------------------|
B|-0----1--------------------------------1----|-1-----1---------------------------0----|
G|-2---------2-------------------0---2--------|-0-------------------------0---2--------|
D|-2--------------2---------2-----------------|------------2---------2-----------------|
A|-0------------------------------------------|-3--------------------------------------|
E|--------------------------------------------|----------------------------------------|


E|-----------------3-------------------|---------------------------------|---------------------0----------------------|
B|-0-----3-----------------------------|---------------------0-----3-----|-0----1--------------------------------1----|
G|-0-------------------------0----2----|-0-------------------0-----4-----|-2---------2-------------------0---2--------|
D|------------0---------0--------------|-2---------2---------------------|-2--------------2---------2-----------------|
A|-------------------------------------|----------------2----------------|-0------------------------------------------|
E|-3-----------------------------------|------0--------------------------|--------------------------------------------|


E|-----------------0----------------------|-----------------3---------3----3----|-----------------------------|
B|-1-----1---------------------------0----|-0-----3-----------------------------|-----------------0-----3-----|
G|-0-------------------------0---2--------|-0-------------------------2----0----|-0---------------0-----4-----|
D|------------2---------2-----------------|------------0---------0--------------|-------2---------------------|
A|-3--------------------------------------|-------------------------------------|------------2----------------|
E|----------------------------------------|-3-----------------------------------|-0---------------------------|


E|---------------------0----------------------|-----------------0----------------------|
B|-0----1--------------------------------1----|-1-----1---------------------------0----|
G|-2---------2-------------------0---2--------|-0-------------------------0---2--------|
D|-2--------------2---------2-----------------|------------2---------2-----------------|
A|-0------------------------------------------|-3--------------------------------------|
E|--------------------------------------------|----------------------------------------|


E|-----------------3-------------------|---------------------------------|---------------------0----------------------|
B|-0-----3-------------------3---------|---------------------0-----3-----|-0----1--------------------------------1----|
G|-0------------------------------2----|-0-------------------0-----4-----|-2---------2-------------------0---2--------|
D|------------0---------0--------------|-2---------2---------------------|-2--------------2---------2-----------------|
A|-------------------------------------|----------------2----------------|-0------------------------------------------|
E|-3-----------------------------------|------0--------------------------|--------------------------------------------|


E|-----------------0----------------------|-----------------3---------3----3----|-----------------------------|
B|-1-----1---------------------------0----|-0-----3-----------------------------|-----------------0-----3-----|
G|-0-------------------------0---2--------|-0-------------------------2----0----|-0---------------0-----4-----|
D|------------2---------2-----------------|------------0---------0--------------|-------2---------------------|
A|-3--------------------------------------|-------------------------------------|------------2----------------|
E|----------------------------------------|-3-----------------------------------|-0---------------------------|


E|---------------------0----------------------|-----------------0----------------------|
B|-0----1--------------------------------1----|-1-----1---------------------------0----|
G|-2---------2-------------------0---2--------|-0-------------------------0---2--------|
D|-2--------------2---------2-----------------|------------2---------2-----------------|
A|-0------------------------------------------|-3--------------------------------------|
E|--------------------------------------------|----------------------------------------|


E|-----------------3-------------------|---------|---------|---------|---------|---------|
B|-0-----3-------------------3---------|---------|---------|---------|---------|---------|
G|-0------------------------------2----|-%-------|-%-------|-%-------|-%-------|-%-------|
D|------------0---------0--------------|-%-------|-%-------|-%-------|-%-------|-%-------|
A|-------------------------------------|---------|---------|---------|---------|---------|
E|-3-----------------------------------|---------|---------|---------|---------|---------|


E|---------|---------|---------|---------|---------|---------|---------|---------|---------|
B|---------|---------|---------|---------|---------|---------|---------|---------|---------|
G|-%-------|-%-------|-%-------|-%-------|-%-------|-%-------|-%-------|-%-------|-%-------|
D|-%-------|-%-------|-%-------|-%-------|-%-------|-%-------|-%-------|-%-------|-%-------|
A|---------|---------|---------|---------|---------|---------|---------|---------|---------|
E|---------|---------|---------|---------|---------|---------|---------|---------|---------|


E|---------|---------|---------|---------------------0----------------------|-----------------0----------------------|
B|---------|---------|---------|-0----1--------------------------------1----|-1-----1---------------------------0----|
G|-%-------|-%-------|-%-------|-2---------2-------------------0---2--------|-0-------------------------0---2--------|
D|-%-------|-%-------|-%-------|-2--------------2---------2-----------------|------------2---------2-----------------|
A|---------|---------|---------|-0------------------------------------------|-3--------------------------------------|
E|---------|---------|---------|--------------------------------------------|----------------------------------------|


E|-----------------3---------3----3----|-----------------------------|---------------------0----------------------|
B|-0-----3-----------------------------|-----------------0-----3-----|-0----1--------------------------------1----|
G|-0-------------------------2----0----|-0---------------0-----4-----|-2---------2-------------------0---2--------|
D|------------0---------0--------------|-------2---------------------|-2--------------2---------2-----------------|
A|-------------------------------------|------------2----------------|-0------------------------------------------|
E|-3-----------------------------------|-3---------------------------|--------------------------------------------|


E|-----------------0----------------------|-----------------3--------------------------|
B|-1-----1---------------------------0----|-0-----3-------------------3----------------|
G|-0-------------------------0---2--------|-0-------------------------0---2---0---2----|
D|------------2---------2-----------------|------------0---------0---------------------|
A|-3--------------------------------------|--------------------------------------------|
E|----------------------------------------|-3------------------------------------------|


E|---------------------------------|---------------------0----------------------|-----------------0----------------------|
B|---------------------0-----3-----|-0----1--------------------------------1----|-1-----1---------------------------0----|
G|-0-------------------0-----4-----|-2---------2-------------------0---2--------|-0-------------------------0---2--------|
D|-2---------2---------------------|-2--------------2---------2-----------------|------------2---------2-----------------|
A|----------------2----------------|-0------------------------------------------|-3--------------------------------------|
E|------0--------------------------|--------------------------------------------|----------------------------------------|


E|-----------------3---------3----3----|-----------------------------|---------------------0----------------------|
B|-0-----3-----------------------------|-----------------0-----3-----|-0----1--------------------------------1----|
G|-0-------------------------2----0----|-0---------------0-----4-----|-2---------2-------------------0---2--------|
D|------------0---------0--------------|-------2---------------------|-2--------------2---------2-----------------|
A|-------------------------------------|------------2----------------|-0------------------------------------------|
E|-3-----------------------------------|-0---------------------------|--------------------------------------------|


E|-----------------0----------------------|-----------------3-------------------|---------------------------------|
B|-1-----1---------------------------0----|-0-----3-------------------3---------|---------------------0-----3-----|
G|-0-------------------------0---2--------|-0------------------------------2----|-0-------------------0-----4-----|
D|------------2---------2-----------------|------------0---------0--------------|-2---------2---------------------|
A|-3--------------------------------------|-------------------------------------|----------------2----------------|
E|----------------------------------------|-3-----------------------------------|------0--------------------------|


E|---------------------0----------------------|-----------------0----------------------|
B|-0----1--------------------------------1----|-1-----1---------------------------0----|
G|-2---------2-------------------0---2--------|-0-------------------------0---2--------|
D|-2--------------2---------2-----------------|------------2---------2-----------------|
A|-0------------------------------------------|-3--------------------------------------|
E|--------------------------------------------|----------------------------------------|


E|-----------------3---------3----3----|-----------------------------|---------------------0----------------------|
B|-0-----3-----------------------------|-----------------0-----3-----|-0----1--------------------------------1----|
G|-0-------------------------2----0----|-0---------------0-----4-----|-2---------2-------------------0---2--------|
D|------------0---------0--------------|-------2---------------------|-2--------------2---------2-----------------|
A|-------------------------------------|------------2----------------|-0------------------------------------------|
E|-3-----------------------------------|-0---------------------------|--------------------------------------------|


E|-----------------0----------------------|-----------------3-------------------|---------|
B|-1-----1---------------------------0----|-0-----3-------------------3---------|---------|
G|-0-------------------------0---2--------|-0------------------------------2----|-%-------|
D|------------2---------2-----------------|------------0---------0--------------|-%-------|
A|-3--------------------------------------|-------------------------------------|---------|
E|----------------------------------------|-3-----------------------------------|---------|


E|---------|---------|---------|---------|---------|---------|---------|---------|---------|
B|---------|---------|---------|---------|---------|---------|---------|---------|---------|
G|-%-------|-%-------|-%-------|-%-------|-%-------|-%-------|-%-------|-%-------|-%-------|
D|-%-------|-%-------|-%-------|-%-------|-%-------|-%-------|-%-------|-%-------|-%-------|
A|---------|---------|---------|---------|---------|---------|---------|---------|---------|
E|---------|---------|---------|---------|---------|---------|---------|---------|---------|


E|---------|---------|---------|---------|---------|---------|---------|---------|---------|
B|---------|---------|---------|---------|---------|---------|---------|---------|---------|
G|-%-------|-%-------|-%-------|-%-------|-%-------|-%-------|-%-------|-%-------|-%-------|
D|-%-------|-%-------|-%-------|-%-------|-%-------|-%-------|-%-------|-%-------|-%-------|
A|---------|---------|---------|---------|---------|---------|---------|---------|---------|
E|---------|---------|---------|---------|---------|---------|---------|---------|---------|


E|---------|---------|---------|---------|---------|---------|---------|---------|---------|
B|---------|---------|---------|---------|---------|---------|---------|---------|---------|
G|-%-------|-%-------|-%-------|-%-------|-%-------|-%-------|-%-------|-%-------|-%-------|
D|-%-------|-%-------|-%-------|-%-------|-%-------|-%-------|-%-------|-%-------|-%-------|
A|---------|---------|---------|---------|---------|---------|---------|---------|---------|
E|---------|---------|---------|---------|---------|---------|---------|---------|---------|


E|---------|---------|---------|---------|---------|---------|---------|---------|---------|
B|---------|---------|---------|---------|---------|---------|---------|---------|---------|
G|-%-------|-%-------|-%-------|-%-------|-%-------|-%-------|-%-------|-%-------|-%-------|
D|-%-------|-%-------|-%-------|-%-------|-%-------|-%-------|-%-------|-%-------|-%-------|
A|---------|---------|---------|---------|---------|---------|---------|---------|---------|
E|---------|---------|---------|---------|---------|---------|---------|---------|---------|


E|---------|---------|---------|---------|---------|---------|---------|---------|---------|
B|---------|---------|---------|---------|---------|---------|---------|---------|---------|
G|-%-------|-%-------|-%-------|-%-------|-%-------|-%-------|-%-------|-%-------|-%-------|
D|-%-------|-%-------|-%-------|-%-------|-%-------|-%-------|-%-------|-%-------|-%-------|
A|---------|---------|---------|---------|---------|---------|---------|---------|---------|
E|---------|---------|---------|---------|---------|---------|---------|---------|---------|


E|---------|---------|---------|---------|---------|---------|---------|---------|---------|
B|---------|---------|---------|---------|---------|---------|---------|---------|---------|
G|-%-------|-%-------|-%-------|-%-------|-%-------|-%-------|-%-------|-%-------|-%-------|
D|-%-------|-%-------|-%-------|-%-------|-%-------|-%-------|-%-------|-%-------|-%-------|
A|---------|---------|---------|---------|---------|---------|---------|---------|---------|
E|---------|---------|---------|---------|---------|---------|---------|---------|---------|


E|---------|---------|---------|---------|---------|---------|---------|---------|---------|
B|---------|---------|---------|---------|---------|---------|---------|---------|---------|
G|-%-------|-%-------|-%-------|-%-------|-%-------|-%-------|-%-------|-%-------|-%-------|
D|-%-------|-%-------|-%-------|-%-------|-%-------|-%-------|-%-------|-%-------|-%-------|
A|---------|---------|---------|---------|---------|---------|---------|---------|---------|
E|---------|---------|---------|---------|---------|---------|---------|---------|---------|


E|---------|---------|---------|---------|---------|---------|---------|---------|---------|
B|---------|---------|---------|---------|---------|---------|---------|---------|---------|
G|-%-------|-%-------|-%-------|-%-------|-%-------|-%-------|-%-------|-%-------|-%-------|
D|-%-------|-%-------|-%-------|-%-------|-%-------|-%-------|-%-------|-%-------|-%-------|
A|---------|---------|---------|---------|---------|---------|---------|---------|---------|
E|---------|---------|---------|---------|---------|---------|---------|---------|---------|


E|---------|---------|---------|---------|---------|---------|---------|---------|---------|
B|---------|---------|---------|---------|---------|---------|---------|---------|---------|
G|-%-------|-%-------|-%-------|-%-------|-%-------|-%-------|-%-------|-%-------|-%-------|
D|-%-------|-%-------|-%-------|-%-------|-%-------|-%-------|-%-------|-%-------|-%-------|
A|---------|---------|---------|---------|---------|---------|---------|---------|---------|
E|---------|---------|---------|---------|---------|---------|---------|---------|---------|


E|---------|---------|---------|---------|---------|---------|---------|---------|---------|
B|---------|---------|---------|---------|---------|---------|---------|---------|---------|
G|-%-------|-%-------|-%-------|-%-------|-%-------|-%-------|-%-------|-%-------|-%-------|
D|-%-------|-%-------|-%-------|-%-------|-%-------|-%-------|-%-------|-%-------|-%-------|
A|---------|---------|---------|---------|---------|---------|---------|---------|---------|
E|---------|---------|---------|---------|---------|---------|---------|---------|---------|


E|---------|---------|---------|---------|---------|---------|---------|---------|---------|
B|---------|---------|---------|---------|---------|---------|---------|---------|---------|
G|-%-------|-%-------|-%-------|-%-------|-%-------|-%-------|-%-------|-%-------|-%-------|
D|-%-------|-%-------|-%-------|-%-------|-%-------|-%-------|-%-------|-%-------|-%-------|
A|---------|---------|---------|---------|---------|---------|---------|---------|---------|
E|---------|---------|---------|---------|---------|---------|---------|---------|---------|


E|---------|---------|---------|---------|---------|---------|---------|---------|---------|
B|---------|---------|---------|---------|---------|---------|---------|---------|---------|
G|-%-------|-%-------|-%-------|-%-------|-%-------|-%-------|-%-------|-%-------|-%-------|
D|-%-------|-%-------|-%-------|-%-------|-%-------|-%-------|-%-------|-%-------|-%-------|
A|---------|---------|---------|---------|---------|---------|---------|---------|---------|
E|---------|---------|---------|---------|---------|---------|---------|---------|---------|


E|---------|---------|---------|---------|---------|---------|---------|---------|---------|
B|---------|---------|---------|---------|---------|---------|---------|---------|---------|
G|-%-------|-%-------|-%-------|-%-------|-%-------|-%-------|-%-------|-%-------|-%-------|
D|-%-------|-%-------|-%-------|-%-------|-%-------|-%-------|-%-------|-%-------|-%-------|
A|---------|---------|---------|---------|---------|---------|---------|---------|---------|
E|---------|---------|---------|---------|---------|---------|---------|---------|---------|


E|---------|---------|
B|---------|---------|
G|-%-------|-%-------|
D|-%-------|-%-------|
A|---------|---------|
E|---------|---------|

    

Nézd meg a videót és ismerd meg a leggyorsabb utat, hogyan tanulhatod meg kedvenc számaid gitáron!