Hogyan játszd el gitáron a Metallica – Green Hell dalt?

Metallica Green Hell – GITÁR PRO TAB, KOTTA, AKKORDOK

Kotta típusa: Drums

(Általában egy zeneszám minden kottája: gitár, szólógitár, basszusgitár, ének, zongora, dob stb. megtalálható az oldalon, de mindegyik egy külön bejegyzésben. Ha egy másik hangszer gitártabos kottáját keresed, akkor az oldal alján vagy a keresőben megtalálod. Sokszor a zenekar tagjának a neve lesz a kotta kategóriája.)

        


C|-49---42---42---42---42---42---42---42---|-42---42---42---42---42---42---42---42---|
C|-----------------------------------------|-----------------------------------------|
C|-----------------------------------------|-----------------------------------------|
C|-----------------------------------------|-----------------------------------------|
C|------38--------38--------38--------38---|------38--------38--------38--------38---|
C|-36------------------36------------------|-36------------------36------------------|


C|-42---42---42---42---42---42---42---42---|-42---42---42---42---42---42---42---42---|
C|-----------------------------------------|-----------------------------------------|
C|-----------------------------------------|-----------------------------------------|
C|-----------------------------------------|-----------------------------------------|
C|------38--------38--------38--------38---|------38--------38--------38--------38---|
C|-36------------------36------------------|-36------------------36------------------|


C|-42---42---42---42---42---42---42---42---|-42---42---42---42---42---42---42---42---|
C|-----------------------------------------|-----------------------------------------|
C|-----------------------------------------|-----------------------------------------|
C|-----------------------------------------|-----------------------------------------|
C|------38--------38--------38--------38---|------38--------38--------38--------38---|
C|-36------------------36------------------|-36------------------36------------------|


C|-42---42---42---42---42---42---42---42---|-42---42---42---42---42---42---42---42---|
C|-----------------------------------------|-----------------------------------------|
C|-----------------------------------------|-----------------------------------------|
C|-----------------------------------------|-----------------------------------------|
C|------38--------38--------38--------38---|------38--------38--------38--------38---|
C|-36------------------36------------------|-36------------------36------------------|


C|-49--------49--------49--------49--------|-57---42---42---42---42---42---42---42---|
C|-----------------------------------------|-----------------------------------------|
C|-----------------------------------------|-----------------------------------------|
C|-----------------------------------------|-----------------------------------------|
C|------38--------38--------38--------38---|------38--------38--------38--------38---|
C|-36--------36--------36--------36--------|-36------------------36------------------|


C|-57---42---42---42---42---42---42---42---|-42---42---42---42---42---42---42---42---|
C|-----------------------------------------|-----------------------------------------|
C|-----------------------------------------|-----------------------------------------|
C|-----------------------------------------|-----------------------------------------|
C|------38--------38--------38--------38---|------38--------38--------38--------38---|
C|-36------------------36------------------|-36------------------36------------------|


C|-42---42---42---42---42---42---42---42---|-42---42---42---42---42---42---42---42---|
C|-----------------------------------------|-----------------------------------------|
C|-----------------------------------------|-----------------------------------------|
C|-----------------------------------------|-----------------------------------------|
C|------38--------38--------38--------38---|------38--------38--------38--------38---|
C|-36------------------36------------------|-36------------------36------------------|


C|-42---42---42---42---42---42---42---42---|-42---42---42---42---42---42---42---42---|
C|-----------------------------------------|-----------------------------------------|
C|-----------------------------------------|-----------------------------------------|
C|-----------------------------------------|-----------------------------------------|
C|------38--------38--------38--------38---|------38--------38--------38--------38---|
C|-36------------------36------------------|-36------------------36------------------|


C|-49--------49--------49--------49--------|-57---42---42---42---42---42---42---42---|
C|-----------------------------------------|-----------------------------------------|
C|-----------------------------------------|-----------------------------------------|
C|-----------------------------------------|-----------------------------------------|
C|------38--------38--------38--------38---|------38--------38--------38--------38---|
C|-36--------36--------36--------36--------|-36------------------36------------------|


C|-57---42---42---42---42---42---42---42---|-42---42---42---42---42---42---42---42---|
C|-----------------------------------------|-----------------------------------------|
C|-----------------------------------------|-----------------------------------------|
C|-----------------------------------------|-----------------------------------------|
C|------38--------38--------38--------38---|------38--------38--------38--------38---|
C|-36------------------36------------------|-36------------------36------------------|


C|-42---42---42---42---42---42---42---42---|-42---42---42---42---42---42---42---42---|
C|-----------------------------------------|-----------------------------------------|
C|-----------------------------------------|-----------------------------------------|
C|-----------------------------------------|-----------------------------------------|
C|------38--------38--------38--------38---|------38--------38--------38--------38---|
C|-36------------------36------------------|-36------------------36------------------|


C|-42---42---42---42---42---42---42---42---|-42---42---42---42---42---42---42---42---|
C|-----------------------------------------|-----------------------------------------|
C|-----------------------------------------|-----------------------------------------|
C|-----------------------------------------|-----------------------------------------|
C|------38--------38--------38--------38---|------38--------38--------38--------38---|
C|-36------------------36------------------|-36------------------36------------------|


C|-57---42---42---42---42---42---42---42---|-42---42---42---42---42---42---42---42---|
C|-----------------------------------------|-----------------------------------------|
C|-----------------------------------------|-----------------------------------------|
C|-----------------------------------------|-----------------------------------------|
C|------38--------38--------38--------38---|------38--------38--------38--------38---|
C|-36------------------36------------------|-36------------------36------------------|


C|-49--------49--------49--------49--------|-57---42---42---42---42---42---42---42---|
C|-----------------------------------------|-----------------------------------------|
C|-----------------------------------------|-----------------------------------------|
C|-----------------------------------------|-----------------------------------------|
C|------38--------38--------38--------38---|------38--------38--------38--------38---|
C|-36--------36--------36--------36--------|-36------------------36------------------|


C|-57---42---42---42---42---42---42---42---|-42---42---42---42---42---42---42---42---|
C|-----------------------------------------|-----------------------------------------|
C|-----------------------------------------|-----------------------------------------|
C|-----------------------------------------|-----------------------------------------|
C|------38--------38--------38--------38---|------38--------38--------38--------38---|
C|-36------------------36------------------|-36------------------36------------------|


C|-42---42---42---42---42---42---42---42---|-42---42---42---42---42---42---42---42---|
C|-----------------------------------------|-----------------------------------------|
C|-----------------------------------------|-----------------------------------------|
C|-----------------------------------------|-----------------------------------------|
C|------38--------38--------38--------38---|------38--------38--------38--------38---|
C|-36------------------36------------------|-36------------------36------------------|


C|-42---42---42---42---42---42---42---42---|-42---42---42---42---42---42---42---42---|
C|-----------------------------------------|-----------------------------------------|
C|-----------------------------------------|-----------------------------------------|
C|-----------------------------------------|-----------------------------------------|
C|------38--------38--------38--------38---|------38--------38--------38--------38---|
C|-36------------------36------------------|-36------------------36------------------|


C|-42---42---42---42---42---42---42---42---|-42---42---42---42---42---42---42---42---|
C|-----------------------------------------|-----------------------------------------|
C|-----------------------------------------|-----------------------------------------|
C|-----------------------------------------|-----------------------------------------|
C|------38--------38--------38--------38---|------38--------38--------38--------38---|
C|-36------------------36------------------|-36------------------36------------------|


C|-49--------49--------49--------49--------|-57---42---42---42---42---42---42---42---|
C|-----------------------------------------|-----------------------------------------|
C|-----------------------------------------|-----------------------------------------|
C|-----------------------------------------|-----------------------------------------|
C|------38--------38--------38--------38---|------38--------38--------38--------38---|
C|-36--------36--------36--------36--------|-36------------------36------------------|


C|-57---42---42---42---42---42---42---42---|-42---42---42---42---42---42---42---42---|
C|-----------------------------------------|-----------------------------------------|
C|-----------------------------------------|-----------------------------------------|
C|-----------------------------------------|-----------------------------------------|
C|------38--------38--------38--------38---|------38--------38--------38--------38---|
C|-36------------------36------------------|-36------------------36------------------|


C|-42---42---42---42---42---42---42---42---|-42---42---42---42---42---42---42---42---|
C|-----------------------------------------|-----------------------------------------|
C|-----------------------------------------|-----------------------------------------|
C|-----------------------------------------|-----------------------------------------|
C|------38--------38--------38--------38---|------38--------38--------38--------38---|
C|-36------------------36------------------|-36------------------36------------------|


C|-57---42---42---42---42---42---42---42---|-42---42---42---42---42---42---42---42---|
C|-----------------------------------------|-----------------------------------------|
C|-----------------------------------------|-----------------------------------------|
C|-----------------------------------------|-----------------------------------------|
C|------38--------38--------38--------38---|------38--------38--------38--------38---|
C|-36------------------36------------------|-36------------------36------------------|


C|-42---42---42---42---42---42---42---42---|-42---42---42---42---42---42---42---42---|
C|-----------------------------------------|-----------------------------------------|
C|-----------------------------------------|-----------------------------------------|
C|-----------------------------------------|-----------------------------------------|
C|------38--------38--------38--------38---|------38--------38--------38--------38---|
C|-36------------------36------------------|-36------------------36------------------|


C|-49--------49--------49--------49--------|-57---42---42---42---42---42---42---42---|
C|-----------------------------------------|-----------------------------------------|
C|-----------------------------------------|-----------------------------------------|
C|-----------------------------------------|-----------------------------------------|
C|------38--------38--------38--------38---|------38--------38--------38--------38---|
C|-36--------36--------36--------36--------|-36------------------36------------------|


C|-49---42---42---42---42---42---42---42---|-42---42---42---42---42---42---42---42---|
C|-----------------------------------------|-----------------------------------------|
C|-----------------------------------------|-----------------------------------------|
C|-----------------------------------------|-----------------------------------------|
C|------38--------38--------38--------38---|------38--------38--------38--------38---|
C|-36------------------36------------------|-36------------------36------------------|


C|-49----|-49------|-49----------------|-------57------|---------|-46----46----46----46--------|
C|-------|---------|-------------------|---------------|---------|-----------------------------|
C|-------|---------|-------------------|-%-------------|-%-------|-----------------------------|
C|-------|---------|-------------------|-%-------------|-%-------|------------------------45---|
C|-------|---------|---------38---38---|-------38------|---------|------------------------47---|
C|-36----|---------|-------------------|---------------|---------|-36----36----36----36--------|


C|-46----46----46----46--------|-46----46----46----46--------|-46----46----46----46--------|
C|-----------------------------|-----------------------------|-----------------------------|
C|-----------------------------|-----------------------------|-----------------------------|
C|------------------------45---|------------------------45---|------------------------45---|
C|------------------------47---|------------------------47---|------------------------47---|
C|-36----36----36----36--------|-36----36----36----36--------|-36----36----36----36--------|


C|-46----46----46----46--------|-46----46----46----46--------|-46----46----46----46--------|
C|-----------------------------|-----------------------------|-----------------------------|
C|-----------------------------|-----------------------------|-----------------------------|
C|------------------------45---|------------------------45---|------------------------45---|
C|------------------------47---|------------------------47---|------------------------47---|
C|-36----36----36----36--------|-36----36----36----36--------|-36----36----36----36--------|


C|-46----46----46----46--------|
C|-----------------------------|
C|-----------------------------|
C|------------------------45---|
C|------------------------47---|
C|-36----36----36----36--------|

    

Nézd meg a videót és ismerd meg a leggyorsabb utat, hogyan tanulhatod meg kedvenc számaid gitáron!