Hogyan játszd el gitáron a Metallica – Master Of Puppets dalt?

Metallica Master Of Puppets – GITÁR PRO TAB, KOTTA, AKKORDOK

Kotta típusa: Hammettclean

(Általában egy zeneszám minden kottája: gitár, szólógitár, basszusgitár, ének, zongora, dob stb. megtalálható az oldalon, de mindegyik egy külön bejegyzésben. Ha egy másik hangszer gitártabos kottáját keresed, akkor az oldal alján vagy a keresőben megtalálod. Sokszor a zenekar tagjának a neve lesz a kotta kategóriája.)

        


E|---------|---------|---------|---------|---------|---------|---------|---------|---------|
B|---------|---------|---------|---------|---------|---------|---------|---------|---------|
G|-%-------|-%-------|-%-------|-%-------|-%-------|-%-------|-%-------|-%-------|-%-------|
D|-%-------|-%-------|-%-------|-%-------|-%-------|-%-------|-%-------|-%-------|-%-------|
A|---------|---------|---------|---------|---------|---------|---------|---------|---------|
E|---------|---------|---------|---------|---------|---------|---------|---------|---------|


E|---------|---------|---------|---------|---------|---------|---------|---------|---------|
B|---------|---------|---------|---------|---------|---------|---------|---------|---------|
G|-%-------|-%-------|-%-------|-%-------|-%-------|-%-------|-%-------|-%-------|-%-------|
D|-%-------|-%-------|-%-------|-%-------|-%-------|-%-------|-%-------|-%-------|-%-------|
A|---------|---------|---------|---------|---------|---------|---------|---------|---------|
E|---------|---------|---------|---------|---------|---------|---------|---------|---------|


E|---------|---------|---------|---------|---------|---------|---------|---------|---------|
B|---------|---------|---------|---------|---------|---------|---------|---------|---------|
G|-%-------|-%-------|-%-------|-%-------|-%-------|-%-------|-%-------|-%-------|-%-------|
D|-%-------|-%-------|-%-------|-%-------|-%-------|-%-------|-%-------|-%-------|-%-------|
A|---------|---------|---------|---------|---------|---------|---------|---------|---------|
E|---------|---------|---------|---------|---------|---------|---------|---------|---------|


E|---------|---------|---------|---------|---------|---------|---------|---------|--------------|
B|---------|---------|---------|---------|---------|---------|---------|---------|--------------|
G|-%-------|-%-------|-%-------|-%-------|-%-------|-%-------|-%-------|-%-------|-%------%-----|
D|-%-------|-%-------|-%-------|-%-------|-%-------|-%-------|-%-------|-%-------|-%------%-----|
A|---------|---------|---------|---------|---------|---------|---------|---------|--------------|
E|---------|---------|---------|---------|---------|---------|---------|---------|--------------|


E|---------|---------|---------|--------------|---------|---------|---------|--------------|
B|---------|---------|---------|--------------|---------|---------|---------|--------------|
G|-%-------|-%-------|-%-------|-%------%-----|-%-------|-%-------|-%-------|-%------%-----|
D|-%-------|-%-------|-%-------|-%------%-----|-%-------|-%-------|-%-------|-%------%-----|
A|---------|---------|---------|--------------|---------|---------|---------|--------------|
E|---------|---------|---------|--------------|---------|---------|---------|--------------|


E|---------|---------|---------|---------|---------|---------|---------|---------|---------|
B|---------|---------|---------|---------|---------|---------|---------|---------|---------|
G|-%-------|-%-------|-%-------|-%-------|-%-------|-%-------|-%-------|-%-------|-%-------|
D|-%-------|-%-------|-%-------|-%-------|-%-------|-%-------|-%-------|-%-------|-%-------|
A|---------|---------|---------|---------|---------|---------|---------|---------|---------|
E|---------|---------|---------|---------|---------|---------|---------|---------|---------|


E|--------|---------|---------|---------|--------|---------|---------|---------|--------|
B|--------|---------|---------|---------|--------|---------|---------|---------|--------|
G|-%------|-%-------|-%-------|-%-------|-%------|-%-------|-%-------|-%-------|-%------|
D|-%------|-%-------|-%-------|-%-------|-%------|-%-------|-%-------|-%-------|-%------|
A|--------|---------|---------|---------|--------|---------|---------|---------|--------|
E|--------|---------|---------|---------|--------|---------|---------|---------|--------|


E|---------|---------|--------|---------|--------|---------|---------|---------|--------|
B|---------|---------|--------|---------|--------|---------|---------|---------|--------|
G|-%-------|-%-------|-%------|-%-------|-%------|-%-------|-%-------|-%-------|-%------|
D|-%-------|-%-------|-%------|-%-------|-%------|-%-------|-%-------|-%-------|-%------|
A|---------|---------|--------|---------|--------|---------|---------|---------|--------|
E|---------|---------|--------|---------|--------|---------|---------|---------|--------|


E|---------|---------|---------|---------|---------|---------|---------|---------|---------|
B|---------|---------|---------|---------|---------|---------|---------|---------|---------|
G|-%-------|-%-------|-%-------|-%-------|-%-------|-%-------|-%-------|-%-------|-%-------|
D|-%-------|-%-------|-%-------|-%-------|-%-------|-%-------|-%-------|-%-------|-%-------|
A|---------|---------|---------|---------|---------|---------|---------|---------|---------|
E|---------|---------|---------|---------|---------|---------|---------|---------|---------|


E|---------|---------|---------|---------|--------------|---------|---------|---------|
B|---------|---------|---------|---------|--------------|---------|---------|---------|
G|-%-------|-%-------|-%-------|-%-------|-%------%-----|-%-------|-%-------|-%-------|
D|-%-------|-%-------|-%-------|-%-------|-%------%-----|-%-------|-%-------|-%-------|
A|---------|---------|---------|---------|--------------|---------|---------|---------|
E|---------|---------|---------|---------|--------------|---------|---------|---------|


E|--------------|---------|---------|---------|---------|---------|---------|---------|
B|--------------|---------|---------|---------|---------|---------|---------|---------|
G|-%------%-----|-%-------|-%-------|-%-------|-%-------|-%-------|-%-------|-%-------|
D|-%------%-----|-%-------|-%-------|-%-------|-%-------|-%-------|-%-------|-%-------|
A|--------------|---------|---------|---------|---------|---------|---------|---------|
E|--------------|---------|---------|---------|---------|---------|---------|---------|


E|---------|---------|--------|---------|---------|---------|--------|---------|---------|
B|---------|---------|--------|---------|---------|---------|--------|---------|---------|
G|-%-------|-%-------|-%------|-%-------|-%-------|-%-------|-%------|-%-------|-%-------|
D|-%-------|-%-------|-%------|-%-------|-%-------|-%-------|-%------|-%-------|-%-------|
A|---------|---------|--------|---------|---------|---------|--------|---------|---------|
E|---------|---------|--------|---------|---------|---------|--------|---------|---------|


E|---------|--------|---------|---------|--------|---------|--------|---------|---------|
B|---------|--------|---------|---------|--------|---------|--------|---------|---------|
G|-%-------|-%------|-%-------|-%-------|-%------|-%-------|-%------|-%-------|-%-------|
D|-%-------|-%------|-%-------|-%-------|-%------|-%-------|-%------|-%-------|-%-------|
A|---------|--------|---------|---------|--------|---------|--------|---------|---------|
E|---------|--------|---------|---------|--------|---------|--------|---------|---------|


E|---------|--------|---------|---------|---------|---------|---------|---------|---------------------|
B|---------|--------|---------|---------|---------|---------|---------|---------|---------------------|
G|-%-------|-%------|-%-------|-%-------|-%-------|-%-------|-%-------|-%-------|----------------0----|
D|-%-------|-%------|-%-------|-%-------|-%-------|-%-------|-%-------|-%-------|-----------2---------|
A|---------|--------|---------|---------|---------|---------|---------|---------|------2--------------|
E|---------|--------|---------|---------|---------|---------|---------|---------|-0-------------------|


E|---------------------0---2---0-------------3----|-----------------------------------------|
B|-----------3---------------------3--------------|-----------3---------3--------------0----|
G|------2---------2---------------------2----0----|------0---------0---------0--------------|
D|-0----------------------------------------------|-------------------------------2---------|
A|------------------------------------------------|-3---------------------------------------|
E|------------------------------------------------|-----------------------------------------|


E|-----------------------------------------|---------------------|---------------------|
B|-0---------0---------0---------0---------|-----------0---------|---------------------|
G|------2-------------------2--------------|------2--------------|----------------0----|
D|-----------------------------------------|-1-------------------|-----------2---------|
A|-0----0----0----0----2--------------2----|---------------------|------2--------------|
E|-----------------------------------------|----------------3----|-0-------------------|


E|---------------------0---2---0-------------3----|-----------------------------------------|
B|-----------3---------------------3--------------|-----------3---------3--------------0----|
G|------2---------2---------------------2----0----|------0---------0---------0--------------|
D|-0----------------------------------------------|-------------------------------2---------|
A|------------------------------------------------|-3---------------------------------------|
E|------------------------------------------------|-----------------------------------------|


E|-----------------------------------------|---------------------|---------------------|
B|-0---------0---------0---------0---------|-----------0---------|---------------------|
G|------2-------------------2--------------|------2--------------|----------------0----|
D|-----------------------------------------|-1-------------------|-----------2---------|
A|-0----0----0----0----2--------------2----|---------------------|------2--------------|
E|-----------------------------------------|----------------3----|-0-------------------|


E|---------------------0---2---0-------------3----|-----------------------------------------|
B|-----------3---------------------3--------------|-----------3---------3--------------0----|
G|------2---------2---------------------2----0----|------0---------0---------0--------------|
D|-0----------------------------------------------|-------------------------------2---------|
A|------------------------------------------------|-3---------------------------------------|
E|------------------------------------------------|-----------------------------------------|


E|-----------------------------------------|---------------------|---------------------|
B|-0---------0---------0---------0---------|-----------0---------|---------------------|
G|------2-------------------2--------------|------2--------------|----------------0----|
D|-----------------------------------------|-1-------------------|-----------2---------|
A|-0----0----0----0----2--------------2----|---------------------|------2--------------|
E|-----------------------------------------|----------------3----|-0-------------------|


E|---------------------0---2---0-------------3----|-----------------------------------------|
B|-----------3---------------------3--------------|-----------3---------3--------------0----|
G|------2---------2---------------------2----0----|------0---------0---------0--------------|
D|-0----------------------------------------------|-------------------------------2---------|
A|------------------------------------------------|-3---------------------------------------|
E|------------------------------------------------|-----------------------------------------|


E|-----------------------------------------|---------------------|---------------------|
B|-0---------0---------0---------0---------|-----------0---------|---------------------|
G|------2-------------------2--------------|------2--------------|----------------0----|
D|-----------------------------------------|-1-------------------|-----------2---------|
A|-0----0----0----0----2--------------2----|---------------------|------2--------------|
E|-----------------------------------------|----------------3----|-0-------------------|


E|---------------------0---2---0-------------3----|-----------------------------------------|
B|-----------3---------------------3--------------|-----------3---------3--------------0----|
G|------2---------2---------------------2----0----|------0---------0---------0--------------|
D|-0----------------------------------------------|-------------------------------2---------|
A|------------------------------------------------|-3---------------------------------------|
E|------------------------------------------------|-----------------------------------------|


E|-----------------------------------------|---------------------|---------------------|
B|-0---------0---------0---------0---------|-----------0---------|---------------------|
G|------2-------------------2--------------|------2--------------|----------------0----|
D|-----------------------------------------|-1-------------------|-----------2---------|
A|-0----0----0----0----2--------------2----|---------------------|------2--------------|
E|-----------------------------------------|----------------3----|-0-------------------|


E|---------------------0---2---0-------------3----|-----------------------------------------|
B|-----------3---------------------3--------------|-----------3---------3--------------0----|
G|------2---------2---------------------2----0----|------0---------0---------0--------------|
D|-0----------------------------------------------|-------------------------------2---------|
A|------------------------------------------------|-3---------------------------------------|
E|------------------------------------------------|-----------------------------------------|


E|-----------------------------------------|---------------------|--------|---------|
B|-0---------0---------0---------0---------|-----------0---------|--------|---------|
G|------2-------------------2--------------|------2--------------|-%------|-%-------|
D|-----------------------------------------|-1-------------------|-%------|-%-------|
A|-0----0----0----0----2--------------2----|---------------------|--------|---------|
E|-----------------------------------------|----------------3----|--------|---------|


E|---------|---------|--------|---------|---------|---------|---------|---------|---------|
B|---------|---------|--------|---------|---------|---------|---------|---------|---------|
G|-%-------|-%-------|-%------|-%-------|-%-------|-%-------|-%-------|-%-------|-%-------|
D|-%-------|-%-------|-%------|-%-------|-%-------|-%-------|-%-------|-%-------|-%-------|
A|---------|---------|--------|---------|---------|---------|---------|---------|---------|
E|---------|---------|--------|---------|---------|---------|---------|---------|---------|


E|---------|---------|---------|---------|---------|---------|---------|---------|---------|
B|---------|---------|---------|---------|---------|---------|---------|---------|---------|
G|-%-------|-%-------|-%-------|-%-------|-%-------|-%-------|-%-------|-%-------|-%-------|
D|-%-------|-%-------|-%-------|-%-------|-%-------|-%-------|-%-------|-%-------|-%-------|
A|---------|---------|---------|---------|---------|---------|---------|---------|---------|
E|---------|---------|---------|---------|---------|---------|---------|---------|---------|


E|--------------|---------|---------|---------|--------------|---------|---------|---------|
B|--------------|---------|---------|---------|--------------|---------|---------|---------|
G|-%------%-----|-%-------|-%-------|-%-------|-%------%-----|-%-------|-%-------|-%-------|
D|-%------%-----|-%-------|-%-------|-%-------|-%------%-----|-%-------|-%-------|-%-------|
A|--------------|---------|---------|---------|--------------|---------|---------|---------|
E|--------------|---------|---------|---------|--------------|---------|---------|---------|


E|--------------|---------|---------|---------|--------------|---------|---------|---------|
B|--------------|---------|---------|---------|--------------|---------|---------|---------|
G|-%------%-----|-%-------|-%-------|-%-------|-%------%-----|-%-------|-%-------|-%-------|
D|-%------%-----|-%-------|-%-------|-%-------|-%------%-----|-%-------|-%-------|-%-------|
A|--------------|---------|---------|---------|--------------|---------|---------|---------|
E|--------------|---------|---------|---------|--------------|---------|---------|---------|


E|--------------|---------|---------|---------|--------------|---------|---------|---------|
B|--------------|---------|---------|---------|--------------|---------|---------|---------|
G|-%------%-----|-%-------|-%-------|-%-------|-%------%-----|-%-------|-%-------|-%-------|
D|-%------%-----|-%-------|-%-------|-%-------|-%------%-----|-%-------|-%-------|-%-------|
A|--------------|---------|---------|---------|--------------|---------|---------|---------|
E|--------------|---------|---------|---------|--------------|---------|---------|---------|


E|---------|---------|---------|---------|---------|---------|---------|---------|---------|
B|---------|---------|---------|---------|---------|---------|---------|---------|---------|
G|-%-------|-%-------|-%-------|-%-------|-%-------|-%-------|-%-------|-%-------|-%-------|
D|-%-------|-%-------|-%-------|-%-------|-%-------|-%-------|-%-------|-%-------|-%-------|
A|---------|---------|---------|---------|---------|---------|---------|---------|---------|
E|---------|---------|---------|---------|---------|---------|---------|---------|---------|


E|---------|---------|---------|---------|---------|---------|---------|---------|---------|
B|---------|---------|---------|---------|---------|---------|---------|---------|---------|
G|-%-------|-%-------|-%-------|-%-------|-%-------|-%-------|-%-------|-%-------|-%-------|
D|-%-------|-%-------|-%-------|-%-------|-%-------|-%-------|-%-------|-%-------|-%-------|
A|---------|---------|---------|---------|---------|---------|---------|---------|---------|
E|---------|---------|---------|---------|---------|---------|---------|---------|---------|


E|---------|---------|---------|---------|---------|---------|---------|---------|---------|
B|---------|---------|---------|---------|---------|---------|---------|---------|---------|
G|-%-------|-%-------|-%-------|-%-------|-%-------|-%-------|-%-------|-%-------|-%-------|
D|-%-------|-%-------|-%-------|-%-------|-%-------|-%-------|-%-------|-%-------|-%-------|
A|---------|---------|---------|---------|---------|---------|---------|---------|---------|
E|---------|---------|---------|---------|---------|---------|---------|---------|---------|


E|---------|---------|--------------|---------|---------|---------|--------------|---------|
B|---------|---------|--------------|---------|---------|---------|--------------|---------|
G|-%-------|-%-------|-%------%-----|-%-------|-%-------|-%-------|-%------%-----|-%-------|
D|-%-------|-%-------|-%------%-----|-%-------|-%-------|-%-------|-%------%-----|-%-------|
A|---------|---------|--------------|---------|---------|---------|--------------|---------|
E|---------|---------|--------------|---------|---------|---------|--------------|---------|


E|---------|---------|---------|---------|---------|---------|---------|---------|--------|
B|---------|---------|---------|---------|---------|---------|---------|---------|--------|
G|-%-------|-%-------|-%-------|-%-------|-%-------|-%-------|-%-------|-%-------|-%------|
D|-%-------|-%-------|-%-------|-%-------|-%-------|-%-------|-%-------|-%-------|-%------|
A|---------|---------|---------|---------|---------|---------|---------|---------|--------|
E|---------|---------|---------|---------|---------|---------|---------|---------|--------|


E|---------|---------|---------|--------|---------|---------|---------|--------|---------|
B|---------|---------|---------|--------|---------|---------|---------|--------|---------|
G|-%-------|-%-------|-%-------|-%------|-%-------|-%-------|-%-------|-%------|-%-------|
D|-%-------|-%-------|-%-------|-%------|-%-------|-%-------|-%-------|-%------|-%-------|
A|---------|---------|---------|--------|---------|---------|---------|--------|---------|
E|---------|---------|---------|--------|---------|---------|---------|--------|---------|


E|---------|--------|---------|--------|---------|---------|---------|--------|---------|
B|---------|--------|---------|--------|---------|---------|---------|--------|---------|
G|-%-------|-%------|-%-------|-%------|-%-------|-%-------|-%-------|-%------|-%-------|
D|-%-------|-%------|-%-------|-%------|-%-------|-%-------|-%-------|-%------|-%-------|
A|---------|--------|---------|--------|---------|---------|---------|--------|---------|
E|---------|--------|---------|--------|---------|---------|---------|--------|---------|


E|---------|---------|---------|---------|---------|---------|--------------|---------|
B|---------|---------|---------|---------|---------|---------|--------------|---------|
G|-%-------|-%-------|-%-------|-%-------|-%-------|-%-------|-%------%-----|-%-------|
D|-%-------|-%-------|-%-------|-%-------|-%-------|-%-------|-%------%-----|-%-------|
A|---------|---------|---------|---------|---------|---------|--------------|---------|
E|---------|---------|---------|---------|---------|---------|--------------|---------|


E|---------|---------|---------|
B|---------|---------|---------|
G|-%-------|-%-------|-%-------|
D|-%-------|-%-------|-%-------|
A|---------|---------|---------|
E|---------|---------|---------|

    

Nézd meg a videót és ismerd meg a leggyorsabb utat, hogyan tanulhatod meg kedvenc számaid gitáron!