Hogyan játszd el gitáron a Metallica – Nothing Else Matters S&M dalt?

Metallica Nothing Else Matters S&M – GITÁR PRO TAB, KOTTA, AKKORDOK

Kotta típusa: James Hatefild – Distortion

(Általában egy zeneszám minden kottája: gitár, szólógitár, basszusgitár, ének, zongora, dob stb. megtalálható az oldalon, de mindegyik egy külön bejegyzésben. Ha egy másik hangszer gitártabos kottáját keresed, akkor az oldal alján vagy a keresőben megtalálod. Sokszor a zenekar tagjának a neve lesz a kotta kategóriája.)

        


D#|---------|---------|---------|---------|---------|---------|--------|---------|---------|
A#|---------|---------|---------|---------|---------|---------|--------|---------|---------|
F#|-%-------|-%-------|-%-------|-%-------|-%-------|-%-------|-%------|-%-------|-%-------|
C#|-%-------|-%-------|-%-------|-%-------|-%-------|-%-------|-%------|-%-------|-%-------|
G#|---------|---------|---------|---------|---------|---------|--------|---------|---------|
D#|---------|---------|---------|---------|---------|---------|--------|---------|---------|


D#|---------|---------|---------|---------|---------|---------|---------|---------|
A#|---------|---------|---------|---------|---------|---------|---------|---------|
F#|-%-------|-%-------|-%-------|-%-------|-%-------|-%-------|-%-------|-%-------|
C#|-%-------|-%-------|-%-------|-%-------|-%-------|-%-------|-%-------|-%-------|
G#|---------|---------|---------|---------|---------|---------|---------|---------|
D#|---------|---------|---------|---------|---------|---------|---------|---------|


D#|---------|---------|---------|---------|---------|---------|---------|---------|
A#|---------|---------|---------|---------|---------|---------|---------|---------|
F#|-%-------|-%-------|-%-------|-%-------|-%-------|-%-------|-%-------|-%-------|
C#|-%-------|-%-------|-%-------|-%-------|-%-------|-%-------|-%-------|-%-------|
G#|---------|---------|---------|---------|---------|---------|---------|---------|
D#|---------|---------|---------|---------|---------|---------|---------|---------|


D#|---------|---------|---------|---------|---------|---------|---------|---------|
A#|---------|---------|---------|---------|---------|---------|---------|---------|
F#|-%-------|-%-------|-%-------|-%-------|-%-------|-%-------|-%-------|-%-------|
C#|-%-------|-%-------|-%-------|-%-------|-%-------|-%-------|-%-------|-%-------|
G#|---------|---------|---------|---------|---------|---------|---------|---------|
D#|---------|---------|---------|---------|---------|---------|---------|---------|


D#|---------|---------|---------|---------|---------|---------|---------|---------|
A#|---------|---------|---------|---------|---------|---------|---------|---------|
F#|-%-------|-%-------|-%-------|-%-------|-%-------|-%-------|-%-------|-%-------|
C#|-%-------|-%-------|-%-------|-%-------|-%-------|-%-------|-%-------|-%-------|
G#|---------|---------|---------|---------|---------|---------|---------|---------|
D#|---------|---------|---------|---------|---------|---------|---------|---------|


D#|---------|---------|---------|---------|---------|---------|---------|---------|
A#|---------|---------|---------|---------|---------|---------|---------|---------|
F#|-%-------|-%-------|-%-------|-%-------|-%-------|-%-------|-%-------|-%-------|
C#|-%-------|-%-------|-%-------|-%-------|-%-------|-%-------|-%-------|-%-------|
G#|---------|---------|---------|---------|---------|---------|---------|---------|
D#|---------|---------|---------|---------|---------|---------|---------|---------|


D#|---------|---------|---------|---------|---------|---------|--------|---------|---------|
A#|---------|---------|---------|---------|---------|---------|--------|---------|---------|
F#|-%-------|-%-------|-%-------|-%-------|-%-------|-%-------|-%------|-%-------|-%-------|
C#|-%-------|-%-------|-%-------|-%-------|-%-------|-%-------|-%------|-%-------|-%-------|
G#|---------|---------|---------|---------|---------|---------|--------|---------|---------|
D#|---------|---------|---------|---------|---------|---------|--------|---------|---------|


D#|---------|---------|---------|---------|---------|---------|---------|---------|
A#|---------|---------|---------|---------|---------|---------|---------|---------|
F#|-%-------|-%-------|-%-------|-%-------|-%-------|-%-------|-%-------|-%-------|
C#|-%-------|-%-------|-%-------|-%-------|-%-------|-%-------|-%-------|-%-------|
G#|---------|---------|---------|---------|---------|---------|---------|---------|
D#|---------|---------|---------|---------|---------|---------|---------|---------|


D#|---------|---------|---------|---------|---------|--------|---------|---------|---------|
A#|---------|---------|---------|---------|---------|--------|---------|---------|---------|
F#|-%-------|-%-------|-%-------|-%-------|-%-------|-%------|-%-------|-%-------|-%-------|
C#|-%-------|-%-------|-%-------|-%-------|-%-------|-%------|-%-------|-%-------|-%-------|
G#|---------|---------|---------|---------|---------|--------|---------|---------|---------|
D#|---------|---------|---------|---------|---------|--------|---------|---------|---------|


D#|---------|---------|---------|---------|---------|---------|---------|---------|
A#|---------|---------|---------|---------|---------|---------|---------|---------|
F#|-%-------|-%-------|-%-------|-%-------|-%-------|-%-------|-%-------|-%-------|
C#|-%-------|-%-------|-%-------|-%-------|-%-------|-%-------|-%-------|-%-------|
G#|---------|---------|---------|---------|---------|---------|---------|---------|
D#|---------|---------|---------|---------|---------|---------|---------|---------|


D#|---------|---------|---------|---------|---------|---------|---------|---------|
A#|---------|---------|---------|---------|---------|---------|---------|---------|
F#|-%-------|-%-------|-%-------|-%-------|-%-------|-%-------|-%-------|-%-------|
C#|-%-------|-%-------|-%-------|-%-------|-%-------|-%-------|-%-------|-%-------|
G#|---------|---------|---------|---------|---------|---------|---------|---------|
D#|---------|---------|---------|---------|---------|---------|---------|---------|


D#|---------|---------|---------|---------|---------|---------|---------|---------|
A#|---------|---------|---------|---------|---------|---------|---------|---------|
F#|-%-------|-%-------|-%-------|-%-------|-%-------|-%-------|-%-------|-%-------|
C#|-%-------|-%-------|-%-------|-%-------|-%-------|-%-------|-%-------|-%-------|
G#|---------|---------|---------|---------|---------|---------|---------|---------|
D#|---------|---------|---------|---------|---------|---------|---------|---------|


D#|---------|---------|---------|---------|---------|---------|---------|---------|
A#|---------|---------|---------|---------|---------|---------|---------|---------|
F#|-%-------|-%-------|-%-------|-%-------|-%-------|-%-------|-%-------|-%-------|
C#|-%-------|-%-------|-%-------|-%-------|-%-------|-%-------|-%-------|-%-------|
G#|---------|---------|---------|---------|---------|---------|---------|---------|
D#|---------|---------|---------|---------|---------|---------|---------|---------|


D#|---------|---------|---------|---------|---------|---------|---------|---------|
A#|---------|---------|---------|---------|---------|---------|---------|---------|
F#|-%-------|-%-------|-%-------|-%-------|-%-------|-%-------|-%-------|-%-------|
C#|-%-------|-%-------|-%-------|-%-------|-%-------|-%-------|-%-------|-%-------|
G#|---------|---------|---------|---------|---------|---------|---------|---------|
D#|---------|---------|---------|---------|---------|---------|---------|---------|


D#|---------|--------|---------|-------------------------------------------------|--------------------------|
A#|---------|--------|---------|-------------------------------------------------|-15----15-----------------|
F#|-%-------|-%------|-%-------|-------------------------------------------------|-14----14---12----14--12--|
C#|-%-------|-%------|-%-------|-------------------------------------------------|--------------------------|
G#|---------|--------|---------|-------------------------------------------------|--------------------------|
D#|---------|--------|---------|-0---0---0---0---0---0---0---0---0---0---0---0---|--------------------------|


D#|-------------------------------------------|------12-------12-10-------------------------------------|
A#|-------------------------------------------|---------------------12-12-15-12----15-12----15-12----15-|
F#|-11--12--11------11------------12--14--12--|-14--------14--------------------14-------14-------14----|
C#|-------------14------12--14----------------|---------------------------------------------------------|
G#|-------------------------------------------|---------------------------------------------------------|
D#|-------------------------------------------|---------------------------------------------------------|


D#|-----------------------------------------0-------12------12--|-15----15--15--14--15------15--14--12--|
A#|-12----15-12----15-12----15-12----15-15------15------15------|-----------------------12--------------|
F#|----14-------14-------14-------14----------------------------|---------------------------------------|
C#|-------------------------------------------------------------|---------------------------------------|
G#|-------------------------------------------------------------|---------------------------------------|
D#|-------------------------------------------------------------|---------------------------------------|


D#|-----15--14--12-------------------------------|---------------------------12---------------------|
A#|-12--------------15--14--12---12--------------|-----------------------12------12--15--15---15-12-|
F#|----------------------------------12--14--12--|-14--14-12-----12--14-----------------------------|
C#|----------------------------------------------|-----------14-------------------------------------|
G#|----------------------------------------------|--------------------------------------------------|
D#|----------------------------------------------|--------------------------------------------------|


D#|------------------------------|------------------------------|--------------------------|
A#|-15--15--15----15---15---15---|-15---15---15---15----15--15--|-15---12--15--12----12----|
F#|------------------------------|------------------------------|--------------------------|
C#|------------------------------|------------------------------|--------------------------|
G#|------------------------------|------------------------------|--------------------------|
D#|------------------------------|------------------------------|--------------------------|


D#|----------------------------------|---------|---------|---------|---------|---------|
A#|-12--12----7----5---7---5----5----|-5-------|---------|---------|---------|---------|
F#|----------------------------------|---------|-%-------|-%-------|-%-------|-%-------|
C#|----------------------------------|---------|-%-------|-%-------|-%-------|-%-------|
G#|----------------------------------|---------|---------|---------|---------|---------|
D#|----------------------------------|---------|---------|---------|---------|---------|


D#|---------|---------|--------|---------|---------|---------|---------|--------|---------|
A#|---------|---------|--------|---------|---------|---------|---------|--------|---------|
F#|-%-------|-%-------|-%------|-%-------|-%-------|-%-------|-%-------|-%------|-%-------|
C#|-%-------|-%-------|-%------|-%-------|-%-------|-%-------|-%-------|-%------|-%-------|
G#|---------|---------|--------|---------|---------|---------|---------|--------|---------|
D#|---------|---------|--------|---------|---------|---------|---------|--------|---------|


D#|---------|---------|---------|--------|---------|---------|---------|---------|--------|
A#|---------|---------|---------|--------|---------|---------|---------|---------|--------|
F#|-%-------|-%-------|-%-------|-%------|-%-------|-%-------|-%-------|-%-------|-%------|
C#|-%-------|-%-------|-%-------|-%------|-%-------|-%-------|-%-------|-%-------|-%------|
G#|---------|---------|---------|--------|---------|---------|---------|---------|--------|
D#|---------|---------|---------|--------|---------|---------|---------|---------|--------|


D#|---------|---------|
A#|---------|---------|
F#|-%-------|-%-------|
C#|-%-------|-%-------|
G#|---------|---------|
D#|---------|---------|

    

Nézd meg a videót és ismerd meg a leggyorsabb utat, hogyan tanulhatod meg kedvenc számaid gitáron!