Hogyan játszd el gitáron a Metallica – Nothing Else Matters S&M dalt?

Metallica Nothing Else Matters S&M – GITÁR PRO TAB, KOTTA, AKKORDOK

Kotta típusa: Orchestra

(Általában egy zeneszám minden kottája: gitár, szólógitár, basszusgitár, ének, zongora, dob stb. megtalálható az oldalon, de mindegyik egy külön bejegyzésben. Ha egy másik hangszer gitártabos kottáját keresed, akkor az oldal alján vagy a keresőben megtalálod. Sokszor a zenekar tagjának a neve lesz a kotta kategóriája.)

        


 E|-----------26---26---26---26-|-26------|--------9------|-9------9------|-9-------|
A#|-----------------------------|---------|---------------|---------------|---------|
F#|-%------%--------------------|---------|-%-------------|---------------|---------|
C#|-%------%--------------------|---------|-%-------------|---------------|---------|
G#|-----------------------------|---------|---------------|---------------|---------|
D#|-----------------------------|---------|---------------|---------------|---------|


 E|-9-------|--------|---------------|---------------|---------|---------|-11-----11-----|
A#|---------|--------|--------1------|-3------1------|---------|-5-------|---------------|
F#|---------|-%------|-%-------------|---------------|-%-------|---------|---------------|
C#|---------|-%------|-%-------------|---------------|-%-------|---------|---------------|
G#|---------|--------|---------------|---------------|---------|---------|---------------|
D#|---------|--------|---------------|---------------|---------|---------|---------------|


 E|-11------|-11------|-11------|--------2------|-1-------------|--------2------|-1------2------|
A#|---------|---------|---------|---------------|--------5------|--------5------|-3------5------|
F#|---------|---------|---------|-%-------------|---------------|-%-------------|---------------|
C#|---------|---------|---------|-%-------------|---------------|-%-------------|---------------|
G#|---------|---------|---------|---------------|---------------|---------------|---------------|
D#|---------|---------|---------|---------------|---------------|---------------|---------------|


 E|-2------6------|-9------11----13---|-14-----18-----|-18----------------|-18-----14-13-14-13-14-13-14-13-14-13-14-13-|
A#|-5-------------|-------------------|---------------|-------------------|--------------------------------------------|
F#|---------------|-------------------|---------------|-------%-----------|--------------------------------------------|
C#|---------------|-------------------|---------------|-------%----17-----|--------------------------------------------|
G#|---------------|-------------------|---------------|------------17-----|-17-----------------------------------------|
D#|---------------|-------------------|---------------|-------------------|--------------------------------------------|


 E|---------|---------|---------|--------------------------|---------|----------------------|
A#|---------|---------|---------|------------------0---3---|-3-------|----------------------|
F#|-%-------|-%-------|-%-------|-%------%----%------------|---------|----------------------|
C#|-%-------|-%-------|-%-------|-%------%----%------------|---------|-0--------------------|
G#|---------|---------|---------|--------------------------|---------|--------3-----3-------|
D#|---------|---------|---------|--------------------------|---------|--------------0---2---|


 E|---------------|-------------------|-------------------|---------------|----------------------|
A#|---------------|------------0------|-0------0----0-----|-0------5------|-7-----7---8----------|
F#|---------------|-%-----%-----------|-------------------|---------------|---------------9------|
C#|---------------|-%-----%-----------|-------------------|---------------|----------------------|
G#|--------2------|-------------------|-------------------|---------------|----------------------|
D#|-3-------------|-------------------|-------------------|---------------|----------------------|


 E|-----------------------|----------------------|--------6------|-4-------------|---------------|
A#|--------8--------------|-7-----7---8----------|--------8------|-7------8------|-8------7------|
F#|-%------------9--------|---------------9------|-%-------------|--------9------|-7-------------|
C#|-%----------------9----|----------------------|-%-------------|---------------|--------9------|
G#|-----------------------|----------------------|---------------|---------------|---------------|
D#|-----------------------|----------------------|---------------|---------------|---------------|


 E|----------------------|-----------------------------|-------------------------------------|
A#|------------------7---|-7---------7---7---------7---|-7--------7---7-------------7--------|
F#|-%------%-----7-------|-------7-------------7-------|------7------------%----7--------7---|
C#|-%------%-------------|-----------------------------|-------------------%-----------------|
G#|----------------------|-----------------------------|-------------------------------------|
D#|----------------------|-----------------------------|-------------------------------------|


 E|----------------------|-------------------------------------|----------------------|
A#|-7-----7---8----------|----------7---7-------------7---7----|-7-----7---8----------|
F#|---------------9------|-%----7------------%----7------------|---------------9------|
C#|----------------------|-%-----------------%-----------------|----------------------|
G#|----------------------|-------------------------------------|----------------------|
D#|----------------------|-------------------------------------|----------------------|


 E|-------------------------------------|--------------------------------|-6-----6---6---13-----|
A#|----------7---7-------------7---7----|----------------5---7---8---10--|----------------------|
F#|-%----7------------%----7------------|-%------%---7-------------------|----------------------|
C#|-%-----------------%-----------------|-%------%-----------------------|----------------------|
G#|-------------------------------------|--------------------------------|----------------------|
D#|-------------------------------------|--------------------------------|----------------------|


 E|-13---11---13---14---13---11---|-14---13---11--------------|-16------|-16------|
A#|-------------------------------|---------------------------|---------|---------|
F#|-------------------------------|----------------%----------|---------|---------|
C#|-------------------------------|----------------%----------|---------|---------|
G#|-------------------------------|---------------------12----|---------|---------|
D#|-------------------------------|---------------------------|---------|---------|


 E|-16-----21-----|-23-----28-----|-28-----|-30------|-25-----26-----|---------|----------------------|
A#|---------------|---------------|--------|---------|---------------|---------|----------------------|
F#|---------------|---------------|--------|---------|---------------|---------|----------------------|
C#|---------------|---------------|--------|---------|---------------|---------|----------------------|
G#|---------------|---------------|--------|---------|---------------|---------|-5------3-------------|
D#|---------------|---------------|--------|---------|---------------|-0-------|--------------3---2---|


 E|---------|----------------------|---------|----------------------|---------------|
A#|---------|----------------------|---------|----------------------|---------------|
F#|---------|----------------------|---------|----------------------|---------------|
C#|---------|----------------------|---------|----------------------|---------------|
G#|---------|-5------3-------------|---------|-5------3-----3-------|--------2------|
D#|-0-------|--------------3---2---|-0-------|--------------0---2---|-3-------------|


 E|---------|-2------4------|--------4------|-4------4------|--------4------|-7------4------|
A#|---------|---------------|---------------|---------------|---------------|---------------|
F#|---------|---------------|-%-------------|---------------|-%-------------|---------------|
C#|---------|---------------|-%-------------|---------------|-%-------------|---------------|
G#|---------|---------------|---------------|---------------|---------------|---------------|
D#|-0-------|---------------|---------------|---------------|---------------|---------------|


 E|-9------|-6------6----2-----|-4-----6----6----9-----|-11-----13-----|-14-----16-----|
A#|--------|-------------------|-----------------------|---------------|---------------|
F#|--------|-------------------|-----------------------|---------------|---------------|
C#|--------|-------------------|-----------------------|---------------|---------------|
G#|--------|-------------------|-----------------------|---------------|---------------|
D#|--------|-------------------|-----------------------|---------------|---------------|


 E|-18------|-18------|-14------|---------|-------------------------------|---------------------------|
A#|---------|---------|---------|-15------|-------------------------------|----------------------15---|
F#|---------|---------|---------|---------|-%-----------------------------|-------14---16---14--------|
C#|---------|---------|---------|---------|-%----14---16---16---14---16---|-17------------------------|
G#|---------|---------|---------|---------|-------------------------------|---------------------------|
D#|---------|---------|---------|---------|-------------------------------|---------------------------|


 E|-23-----25-----|-26-----28-----|-18------|-19------|-18-----18---16--------|---------------------------|
A#|---------------|---------------|---------|---------|------------------17---|-5----3---------------3----|
F#|---------------|---------------|---------|-14------|-----------------------|-----------2---------------|
C#|---------------|---------------|---------|---------|-----------------------|----------------0----------|
G#|---------------|---------------|---------|---------|-----------------------|---------------------------|
D#|---------------|---------------|---------|---------|-----------------------|---------------------------|


 E|--------6------|-6----4----2----1----2----4----|---------------|----------------------|
A#|---------------|-------------------------------|-5-------------|-7-----7---8----------|
F#|-%-------------|-------------------------------|--------%------|---------------9------|
C#|-%-------------|-------------------------------|--------%------|----------------------|
G#|---------------|-------------------------------|---------------|----------------------|
D#|---------------|-------------------------------|---------------|----------------------|


 E|-------------------|----------------------|-------------------|----------------------|
A#|-------------------|-7-----7---8----------|--------------5----|-7-----7---8----------|
F#|-%------%-----9----|---------------7------|-%------%----------|---------------7------|
C#|-%------%----------|----------------------|-%------%----------|----------------------|
G#|-------------------|----------------------|-------------------|----------------------|
D#|-------------------|----------------------|-------------------|----------------------|


 E|---------|---------|-------------------------------|-------------------------------|
A#|---------|---------|------5----7----8----10---12---|-------------------------------|
F#|-%-------|-%-------|-%--------------9----11---12---|-%----12---12---%----12---12---|
C#|-%-------|-%-------|-%-----------------------------|-%----14---14---%----14---14---|
G#|---------|---------|-------------------------------|-------------------------------|
D#|---------|---------|-------------------------------|-------------------------------|


 E|-------------------------------|-------------------------------|-------------------------------|
A#|-------------------------------|------8----8---------8---------|------7----5---------5----3----|
F#|-%----11---9----%----9----7----|-%----9----9----%----9----9----|-%----7----7----%----5----5----|
C#|-%----12---12---%----10---10---|-%--------------%---------9----|-%--------------%--------------|
G#|-------------------------------|-------------------------------|-------------------------------|
D#|-------------------------------|-------------------------------|-------------------------------|


 E|------6--------------6---------|------4------------------------|---------------|
A#|------8----8---------8----8----|------5----7---------8----5----|-8------7------|
F#|-%----9----9----%----9----9----|-%----7----7----%----7----5----|---------------|
C#|-%--------------%--------------|-%--------------%----10--------|---------------|
G#|-------------------------------|-------------------------------|---------------|
D#|-------------------------------|-------------------------------|---------------|


 E|---------|-2------4------|---------4---9-------------------4---9-----------|---------------------------------4---------------|
A#|-5-------|---------------|-----3-----------8---7-------------------7-------|---------5-------------------5-------5-------5---|
F#|---------|---------------|-2---------------------------7---------------7---|-5---7-------7---5---7-------------------2-------|
C#|---------|---------------|-------------------------7-----------------------|-------------------------7-----------------------|
G#|---------|---------------|-------------------------------------------------|-------------------------------------------------|
D#|---------|---------------|-------------------------------------------------|-------------------------------------------------|


 E|---------4---9-------------------4---9-----------|---------------------------------4---------------|
A#|-----3-----------8---7-------------------7-------|---------5-------------------5-------5-------5---|
F#|-2---------------------------7---------------7---|-5---7-------7---5---7-------------------2-------|
C#|-------------------------7-----------------------|-------------------------7-----------------------|
G#|-------------------------------------------------|-------------------------------------------------|
D#|-------------------------------------------------|-------------------------------------------------|


 E|---------4---9-------------------4---9-----------|---------------------------------4---------------|
A#|-----3-----------8---7-------------------7-------|---------5-------------------5-------5-------5---|
F#|-2---------------------------7---------------7---|-5---7-------7---5---7-------------------2-------|
C#|-------------------------7-----------------------|-------------------------7-----------------------|
G#|-------------------------------------------------|-------------------------------------------------|
D#|-------------------------------------------------|-------------------------------------------------|


 E|---------4---9-------------------4---9-----------|---------------------------------4---------------|
A#|-----3-----------8---7-------------------7-------|---------5-------------------5-------5-------5---|
F#|-2---------------------------7---------------7---|-5---7-------7---5---7-------------------2-------|
C#|-------------------------7-----------------------|-------------------------7-----------------------|
G#|-------------------------------------------------|-------------------------------------------------|
D#|-------------------------------------------------|-------------------------------------------------|


 E|-------21---|-23-----25-----|-26-----28------------|-30------|-28-----26-----|-30------|
A#|------------|---------------|----------------------|---------|---------------|---------|
F#|-%----------|---------------|------------------14--|---------|---------------|---------|
C#|-%----------|---------------|--------------17------|---------|---------------|---------|
G#|------------|---------------|----------------------|---------|---------------|---------|
D#|------------|---------------|----------------------|---------|---------------|---------|


 E|-28-----26-----|-30------|-28-----26-----|-14-----16-----|-18------|-18------|---------|
A#|---------------|---------|---------------|---------------|---------|---------|---------|
F#|---------------|---------|---------------|---------------|---------|---------|---------|
C#|---------------|---------|---------------|---------------|---------|---------|---------|
G#|---------------|---------|---------------|---------------|---------|---------|---------|
D#|---------------|---------|---------------|---------------|---------|---------|-0-------|


 E|---------|---------|---------|---------|---------|--------------6----|-6-------|
A#|---------|---------|---------|---------|---------|-------------------|---------|
F#|---------|---------|---------|---------|---------|-------------------|---------|
C#|---------|---------|---------|---------|---------|-------------------|---------|
G#|---------|---------|---------|---------|---------|-------------------|---------|
D#|-0-------|-0-------|-0-------|-0-------|-0-------|-0------0----------|---------|


 E|-6-------|--------|-6-------|-6------------9----|-9-------|-9------9----6-----|-6------|
A#|---------|--------|---------|--------5----------|---------|-------------------|--------|
F#|---------|-%------|---------|-------------------|---------|-------------------|--------|
C#|---------|-%------|---------|-------------------|---------|-------------------|--------|
G#|---------|--------|---------|-------------------|---------|-------------------|--------|
D#|---------|--------|---------|-------------------|---------|-------------------|--------|


 E|-6------6----9-----|-9------9-----9----|-9------9-----6----|-6-------|-9------|-9------9----------|
A#|-------------------|-------------------|-------------------|---------|--------|-------------19----|
F#|-------------------|-------------------|-------------------|---------|--------|-------------19----|
C#|-------------------|-------------------|-------------------|---------|--------|-------------------|
G#|-------------------|-------------------|-------------------|---------|--------|-------------------|
D#|-------------------|-------------------|-------------------|---------|--------|-------------------|


 E|-9------9-----14---|-14------|-14------|--------|---------|---------|
A#|--------------15---|-15------|-15------|--------|---------|---------|
F#|-19-----19---------|---------|---------|-%------|-%-------|-%-------|
C#|-------------------|---------|---------|-%------|-%-------|-%-------|
G#|-------------------|---------|---------|--------|---------|---------|
D#|-------------------|---------|---------|--------|---------|---------|

    

Nézd meg a videót és ismerd meg a leggyorsabb utat, hogyan tanulhatod meg kedvenc számaid gitáron!