Hogyan játszd el gitáron a Metallica – One dalt?

Metallica One – GITÁR PRO TAB, KOTTA, AKKORDOK

Kotta típusa: Guitare 6 W Disto

(Általában egy zeneszám minden kottája: gitár, szólógitár, basszusgitár, ének, zongora, dob stb. megtalálható az oldalon, de mindegyik egy külön bejegyzésben. Ha egy másik hangszer gitártabos kottáját keresed, akkor az oldal alján vagy a keresőben megtalálod. Sokszor a zenekar tagjának a neve lesz a kotta kategóriája.)

        


E|---------|---------|---------|---------|---------|---------|---------|---------|--------|
B|---------|---------|---------|---------|---------|---------|---------|---------|--------|
G|-%-------|-%-------|-%-------|-%-------|-%-------|-%-------|-%-------|-%-------|-%------|
D|-%-------|-%-------|-%-------|-%-------|-%-------|-%-------|-%-------|-%-------|-%------|
A|---------|---------|---------|---------|---------|---------|---------|---------|--------|
E|---------|---------|---------|---------|---------|---------|---------|---------|--------|


E|---------|---------|---------|---------|---------|---------|---------|--------|---------|
B|---------|---------|---------|---------|---------|---------|---------|--------|---------|
G|-%-------|-%-------|-%-------|-%-------|-%-------|-%-------|-%-------|-%------|-%-------|
D|-%-------|-%-------|-%-------|-%-------|-%-------|-%-------|-%-------|-%------|-%-------|
A|---------|---------|---------|---------|---------|---------|---------|--------|---------|
E|---------|---------|---------|---------|---------|---------|---------|--------|---------|


E|---------|---------|---------|---------|---------|---------|---------|--------------|
B|---------|---------|---------|---------|---------|---------|---------|--------------|
G|-%-------|-%-------|-%-------|-%-------|-%-------|-%-------|-%-------|-%------%-----|
D|-%-------|-%-------|-%-------|-%-------|-%-------|-%-------|-%-------|-%------%-----|
A|---------|---------|---------|---------|---------|---------|---------|--------------|
E|---------|---------|---------|---------|---------|---------|---------|--------------|


E|--------------|--------------|--------------|--------------|--------------|--------------|
B|--------------|--------------|--------------|--------------|--------------|--------------|
G|-%------%-----|-%------%-----|-%------%-----|-%------%-----|-%------%-----|-%------%-----|
D|-%------%-----|-%------%-----|-%------%-----|-%------%-----|-%------%-----|-%------%-----|
A|--------------|--------------|--------------|--------------|--------------|--------------|
E|--------------|--------------|--------------|--------------|--------------|--------------|


E|--------------|--------------|--------------|--------------|--------------|--------------|
B|--------------|--------------|--------------|--------------|--------------|--------------|
G|-%------%-----|-%------%-----|-%------%-----|-%------%-----|-%------%-----|-%------%-----|
D|-%------%-----|-%------%-----|-%------%-----|-%------%-----|-%------%-----|-%------%-----|
A|--------------|--------------|--------------|--------------|--------------|--------------|
E|--------------|--------------|--------------|--------------|--------------|--------------|


E|--------------|--------------|--------------|--------------|--------------|--------------|
B|--------------|--------------|--------------|--------------|--------------|--------------|
G|-%------%-----|-%------%-----|-%------%-----|-%------%-----|-%------%-----|-%------%-----|
D|-%------%-----|-%------%-----|-%------%-----|-%------%-----|-%------%-----|-%------%-----|
A|--------------|--------------|--------------|--------------|--------------|--------------|
E|--------------|--------------|--------------|--------------|--------------|--------------|


E|--------------|--------------|--------|--------------|--------------|--------------|
B|--------------|--------------|--------|--------------|--------------|--------------|
G|-%------%-----|-%------%-----|-%------|-%------%-----|-%------%-----|-%------%-----|
D|-%------%-----|-%------%-----|-%------|-%------%-----|-%------%-----|-%------%-----|
A|--------------|--------------|--------|--------------|--------------|--------------|
E|--------------|--------------|--------|--------------|--------------|--------------|


E|--------------|--------------|--------------|--------------|--------|-----------------------------------------|
B|--------------|--------------|--------------|--------------|--------|-----------------------------------------|
G|-%------%-----|-%------%-----|-%------%-----|-%------%-----|-%------|-----------------------------------------|
D|-%------%-----|-%------%-----|-%------%-----|-%------%-----|-%------|-----------------------------------4-----|
A|--------------|--------------|--------------|--------------|--------|-5------7----9----7----5-----4-----2-----|
E|--------------|--------------|--------------|--------------|--------|-3------5----7----5----3-----2-----------|


E|-----------------------------------------|---------|---------|--------------|--------------|
B|-----------------------------------------|---------|---------|--------------|--------------|
G|-----------------------------------------|---------|---------|-%------%-----|-%------%-----|
D|-2------4----6----4----2-----------------|-0-------|-0-------|-%------%-----|-%------%-----|
A|-0------2----4----2----0-----3-----4-----|---------|---------|--------------|--------------|
E|-----------------------------------------|---------|---------|--------------|--------------|


E|--------------|--------------|--------------|--------------|--------------|--------------|
B|--------------|--------------|--------------|--------------|--------------|--------------|
G|-%------%-----|-%------%-----|-%------%-----|-%------%-----|-%------%-----|-%------%-----|
D|-%------%-----|-%------%-----|-%------%-----|-%------%-----|-%------%-----|-%------%-----|
A|--------------|--------------|--------------|--------------|--------------|--------------|
E|--------------|--------------|--------------|--------------|--------------|--------------|


E|--------------|--------------|--------------|--------------|--------------|--------------|
B|--------------|--------------|--------------|--------------|--------------|--------------|
G|-%------%-----|-%------%-----|-%------%-----|-%------%-----|-%------%-----|-%------%-----|
D|-%------%-----|-%------%-----|-%------%-----|-%------%-----|-%------%-----|-%------%-----|
A|--------------|--------------|--------------|--------------|--------------|--------------|
E|--------------|--------------|--------------|--------------|--------------|--------------|


E|--------------|--------------|--------------|--------------|---------|-----------------------------------------|
B|--------------|--------------|--------------|--------------|---------|-----------------------------------------|
G|-%------%-----|-%------%-----|-%------%-----|-%------%-----|-%-------|-----------------------------------------|
D|-%------%-----|-%------%-----|-%------%-----|-%------%-----|-%-------|-----------------------------------4-----|
A|--------------|--------------|--------------|--------------|---------|-5------7----9----7----5-----4-----2-----|
E|--------------|--------------|--------------|--------------|---------|-3------5----7----5----3-----2-----------|


E|-----------------------------------------|-----------------------------------------|
B|-----------------------------------------|-----------------------------------------|
G|-----------------------------------------|-----------------------------------------|
D|-2------4----6----4----2-----4-----6-----|-----------------------------------4-----|
A|-0------2----4----2----0-----2-----4-----|-5------7----9----7----5-----4-----2-----|
E|-----------------------------------------|-3------5----7----5----3-----2-----------|


E|-----------------------------------------|-----------------------------------------|
B|-----------------------------------------|-----------------------------------------|
G|-----------------------------------------|-----------------------------------------|
D|-2------4----6----4----2-----4-----6-----|-----------------------------------4-----|
A|-0------2----4----2----0-----2-----4-----|-5------7----9----7----5-----4-----2-----|
E|-----------------------------------------|-3------5----7----5----3-----2-----------|


E|-----------------------|--------------|--------------|---------|-----------------------|
B|-----------------------|--------------|--------------|---------|-----------------------|
G|-----------------------|--------------|-4------4-----|-5-------|-----------------------|
D|-----------------------|--------------|--------------|---------|-----------------------|
A|-3------2----3----5----|-5------2-----|-2------2-----|-3-------|-3------2----3----5----|
E|-----------------------|--------------|--------------|---------|-----------------------|


E|--------------|--------------|---------|-----------------------|--------------|--------------|
B|--------------|--------------|---------|-----------------------|--------------|--------------|
G|--------------|-4------4-----|-5-------|-----------------------|--------------|-4------4-----|
D|--------------|--------------|---------|-----------------------|--------------|--------------|
A|-5------2-----|-2------2-----|-3-------|-3------2----3----5----|-5------2-----|-2------2-----|
E|--------------|--------------|---------|-----------------------|--------------|--------------|


E|---------|-----------------------|--------------|--------------|---------|-0----0----0----0----0---------|
B|---------|-----------------------|--------------|--------------|---------|-0----0----0----0----0----3----|
G|-5-------|-----------------------|--------------|-4------4-----|-5-------|--------------------------2----|
D|---------|-----------------------|--------------|--------------|---------|-2----2----2----2----2----0----|
A|-3-------|-3------2----3----5----|-5------2-----|-2------2-----|-3-------|-------------------------------|
E|---------|-----------------------|--------------|--------------|---------|-------------------------------|


E|---------------------------|-----------------------|----------------------------------|
B|-3----3----3----3----3-----|-----------------------|----------------------------------|
G|-2----2----2----2----2-----|-4-----------4---------|-5------------5---------5---------|
D|-0----0----0----0----0-----|-4-----------4---------|-5----5---5---5---------5---------|
A|---------------------------|-2-----------2---------|-3----3---3---3---------3---------|
E|---------------------------|--------2---------2----|-------------------3---------3----|


E|---------|---------|---------------------------------------------------------------------|
B|---------|---------|---------------------------------------------------------------------|
G|-5-------|-5-------|------------------------------%---------------------------------%----|
D|-5-------|-5-------|-------------------------2----%----------------------------2----%----|
A|-7-------|-7-------|-------------------------2---------------------------------2---------|
E|-0-------|-0-------|-0---0---0---0---0---0---0---------0---0---0---0---0---0---0---------|


E|---------------------------------------------------------------------|-----------------------------------------------------------------|
B|---------------------------------------------------------------------|-----------------------------------------------------------------|
G|------------------------------%---------------------------------%----|------------------------------------------------------------%----|
D|-------------------------2----%----------------------------2----%----|-------------------------2-----------------------------2----%----|
A|-------------------------2---------------------------------2---------|-------------------------2-----------------------------2---------|
E|-0---0---0---0---0---0---0---------0---0---0---0---0---0---0---------|-0---0---0---0---0---0---0-----0---0---0---0---0---0---0---------|


E|-----------------------------------------------------------------|---------------------------------------------------------------------|
B|-----------------------------------------------------------------|---------------------------------------------------------------------|
G|-----------------------------------------------------------------|------------------------------%---------------------------------%----|
D|-------------------------2-----------------------------2----3----|-------------------------2----%----------------------------2----%----|
A|-------------------------2-----------------------------2----3----|-------------------------2---------------------------------2---------|
E|-0---0---0---0---0---0---0-----0---0---0---0---0---0-------------|-0---0---0---0---0---0-------------0---0---0---0---0---0-------------|


E|---------------------------------------------------------------------|---------------------------------------------------------------------|
B|---------------------------------------------------------------------|---------------------------------------------------------------------|
G|------------------------------%--------------------------------------|------------------------------%---------------------------------%----|
D|-------------------------2----%----------------------------2----3----|-------------------------2----%----------------------------2----%----|
A|-------------------------2---------------------------------2----3----|-------------------------2---------------------------------2---------|
E|-0---0---0---0---0---0-------------0---0---0---0---0---0-------------|-0---0---0---0---0---0-------------0---0---0---0---0---0-------------|


E|---------------------------------------------------------------------|-----------------------------------------------------------------|
B|---------------------------------------------------------------------|-----------------------------------------------------------------|
G|------------------------------%--------------------------------------|-----------------------------------------------------------------|
D|-------------------------2----%----------------------------2----3----|-----------------------------------------------------------------|
A|-------------------------2---------------------------------2----3----|-------------------------7-----------------------------7----8----|
E|-0---0---0---0---0---0-------------0---0---0---0---0---0-------------|-0---0---0---0---0---0---------0---0---0---0---0---0-------------|


E|-----------------------------------------------------------------|-----------------------------------------------------------------|
B|-----------------------------------------------------------------|-----------------------------------------------------------------|
G|-----------------------------------------------------------------|-----------------------------------------------------------------|
D|-----------------------------------------------------------------|-----------------------------------------------------------------|
A|-------------------------5-----------------------------5----8----|-------------------------7-----------------------------7----8----|
E|-0---0---0---0---0---0---------0---0---0---0---0---0-------------|-0---0---0---0---0---0---------0---0---0---0---0---0-------------|


E|-----------------------------------------------------------------|----------------------------------------------------|
B|-----------------------------------------------------------------|----------------------------------------------------|
G|-----------------------------------------------------------------|----------------------------------------------------|
D|-----------------------------------------------------------------|-------------------------------2--------------------|
A|-------------------------5---------------------------------------|-------------------------------2--------------------|
E|-0---0---0---0---0---0---------0---0---0---0---0---0---10---7----|-0----0----0----0----0----0----------0----0----0----|


E|-------------------------------------------|----------------------------------------------------|
B|-------------------------------------------|----------------------------------------------------|
G|-------------------------------------------|----------------------------------------------------|
D|----------------2-----2----2----2----3-----|-------------------------------2--------------------|
A|----------------2--------------------3-----|-------------------------------2--------------------|
E|-0----0----0-------------------------------|-0----0----0----0----0----0----------0----0----0----|


E|-------------------------------------------|--------------------------------------------------------|
B|-------------------------------------------|--------------------------------------------------------|
G|-------------------------------------------|------------------------------------%-------------------|
D|----------------2-----2----2----2----3-----|------------------------------------%-------------------|
A|----------------2--------------------3-----|--------------------------------------------------------|
E|-0----0----0-------------------------------|-0----0----0----0----0----0----0---------0----0----0----|


E|---------------------------------------------------|--------------------------------------------------------|
B|---------------------------------------------------|--------------------------------------------------------|
G|---------------------%------------------------%----|------------------------------------%-------------------|
D|---------------------%------------------------%----|------------------------------------%-------------------|
A|---------------------------------------------------|--------------------------------------------------------|
E|-0----0----0----0---------0----0----0----0---------|-0----0----0----0----0----0----0---------0----0----0----|


E|--------------------------------------------------------|----------------------------------------------------|
B|--------------------------------------------------------|----------------------------------------------------|
G|---------------------%----------------------------------|----------------------------------------------------|
D|---------------------%----------------------------------|-------------------------------2--------------------|
A|--------------------------------------------------------|-------------------------------2--------------------|
E|-0----0----0----0---------0----0----0----0----0----0----|-0----0----0----0----0----0----------0----0----0----|


E|-------------------------------------------|----------------------------------------------------|
B|-------------------------------------------|----------------------------------------------------|
G|-------------------------------------------|----------------------------------------------------|
D|----------------2-----2----2----2----3-----|-------------------------------2--------------------|
A|----------------2--------------------3-----|-------------------------------2--------------------|
E|-0----0----0-------------------------------|-0----0----0----0----0----0----------0----0----0----|


E|-------------------------------------------|--------------------------------------------------------|
B|-------------------------------------------|--------------------------------------------------------|
G|-------------------------------------------|------------------------------------%-------------------|
D|----------------2-----2----2----2----3-----|------------------------------------%-------------------|
A|----------------2--------------------3-----|--------------------------------------------------------|
E|-0----0----0-------------------------------|-0----0----0----0----0----0----0---------0----0----0----|


E|---------------------------------------------------|--------------------------------------------------------|
B|---------------------------------------------------|--------------------------------------------------------|
G|---------------------%------------------------%----|------------------------------------%-------------------|
D|---------------------%------------------------%----|------------------------------------%-------------------|
A|---------------------------------------------------|--------------------------------------------------------|
E|-0----0----0----0---------0----0----0----0---------|-0----0----0----0----0----0----0---------0----0----0----|


E|--------------------------------------------------------|----------------------------------------------------|
B|--------------------------------------------------------|----------------------------------------------------|
G|---------------------%----------------------------------|----------------------------------------------------|
D|---------------------%----------------------------------|-------------------------------2--------------------|
A|--------------------------------------------------------|-------------------------------2--------------------|
E|-0----0----0----0---------0----0----0----0----0----0----|-0----0----0----0----0----0----------0----0----0----|


E|-------------------------------------------|----------------------------------------------------|
B|-------------------------------------------|----------------------------------------------------|
G|-------------------------------------------|----------------------------------------------------|
D|----------------2-----2----2----2----3-----|-------------------------------2--------------------|
A|----------------2--------------------3-----|-------------------------------2--------------------|
E|-0----0----0-------------------------------|-0----0----0----0----0----0----------0----0----0----|


E|-------------------------------------------|----------------------------------------------------|
B|-------------------------------------------|----------------------------------------------------|
G|-------------------------------------------|----------------------------------------------------|
D|----------------2-----2----2----2----3-----|-------------------------------2--------------------|
A|----------------2--------------------3-----|-------------------------------2--------------------|
E|-0----0----0-------------------------------|-0----0----0----0----0----0----------0----0----0----|


E|-------------------------------------------|----------------------------------------------------|
B|-------------------------------------------|----------------------------------------------------|
G|-------------------------------------------|----------------------------------------------------|
D|----------------2-----2----2----2----3-----|-------------------------------2--------------------|
A|----------------2--------------------3-----|-------------------------------2--------------------|
E|-0----0----0-------------------------------|-0----0----0----0----0----0----------0----0----0----|


E|-------------------------------------------|--------------------------------------------------------|
B|-------------------------------------------|--------------------------------------------------------|
G|-------------------------------------------|------------------------------------%-------------------|
D|----------------2-----2----2----2----3-----|------------------------------------%-------------------|
A|----------------2--------------------3-----|--------------------------------------------------------|
E|-0----0----0-------------------------------|-0----0----0----0----0----0----0---------0----0----0----|


E|---------------------------------------------------|-------------------------------------------|
B|---------------------------------------------------|-------------------------------------------|
G|---------------------%------------------------%----|-------------------------------------------|
D|---------------------%------------------------%----|-------------------------------2-----2-----|
A|---------------------------------------------------|-------------------------------2-----2-----|
E|-0----0----0----0---------0----0----0----0---------|-0----0----0----0----0----0----0-----0-----|


E|-------------------------------------------|-------------------------------------------|
B|-------------------------------------------|-------------------------------------------|
G|-------------------------------------------|-------------------------------------------|
D|-------------------------------2-----2-----|-------------------------------2-----3-----|
A|-------------------------------2-----2-----|-------------------------------2-----3-----|
E|-0----0----0----0----0----0----0-----0-----|-0----0----0----0----0----0----------------|


E|-------------------------------------------|-------------------------------------------|
B|-------------------------------------------|-------------------------------------------|
G|-------------------------------------------|-------------------------------------------|
D|-------------------------------5-----5-----|-------------------------------2-----2-----|
A|-------------------------------5-----5-----|-------------------------------2-----2-----|
E|-3----3----3----3----3----3----3-----3-----|-0----0----0----0----0----0----0-----0-----|


E|-------------------------------------------|-------------------------------------------|
B|-------------------------------------------|-------------------------------------------|
G|-------------------------------------------|-------------------------------------------|
D|-------------------------------2-----2-----|-------------------------------2-----3-----|
A|-------------------------------2-----2-----|-------------------------------2-----3-----|
E|-0----0----0----0----0----0----0-----0-----|-0----0----0----0----0----0----------------|


E|-------------------------------------------|-------------------------------------------|
B|-------------------------------------------|-------------------------------------------|
G|-------------------------------------------|-------------------------------------------|
D|-------------------------------5-----5-----|-------------------------------5-----5-----|
A|-------------------------------5-----5-----|-------------------------------5-----5-----|
E|-3----3----3----3----3----3----3-----3-----|-3----3----3----3----3----3----3-----3-----|


E|-------------------------------------------|-------------------------------------------|
B|-------------------------------------------|-------------------------------------------|
G|-------------------------------------------|-------------------------------------------|
D|-------------------------------5-----5-----|-------------------------------5-----6-----|
A|-------------------------------5-----5-----|-------------------------------5-----6-----|
E|-3----3----3----3----3----3----3-----3-----|-3----3----3----3----3----3----------------|


E|-------------------------------------------|-------------------------------------------|
B|-------------------------------------------|-------------------------------------------|
G|-------------------------------------------|-------------------------------------------|
D|-------------------------------3-----3-----|-------------------------------5-----5-----|
A|-------------------------------3-----3-----|-------------------------------5-----5-----|
E|-1----1----1----1----1----1----1-----1-----|-3----3----3----3----3----3----3-----3-----|


E|-------------------------------------------|-------------------------------------------|
B|-------------------------------------------|-------------------------------------------|
G|-------------------------------------------|-------------------------------------------|
D|-------------------------------5-----5-----|-------------------------------5-----6-----|
A|-------------------------------5-----5-----|-------------------------------5-----6-----|
E|-3----3----3----3----3----3----3-----3-----|-3----3----3----3----3----3----------------|


E|-------------------------------------------|---------------------------------|---------------------------------|
B|-------------------------------------------|---------------------------------|---------------------------------|
G|-------------------------------------------|---------------------------------|---------------------------------|
D|-------------------------------3-----3-----|-----------5---------------5-----|-----------5---------------5-----|
A|-------------------------------3-----3-----|-----------5---------------5-----|-----------5---------------5-----|
E|-1----1----1----1----1----1----1-----1-----|-3----3----3-----3----3----3-----|-3----3----3-----3----3----3-----|


E|-------------------------------------------|-------------------------------------------|
B|-------------------------------------------|-------------------------------------------|
G|-------------------------------------------|-------------------------------------------|
D|-------------------------------3-----3-----|-------------------------------3-----3-----|
A|-------------------------------3-----3-----|-------------------------------3-----3-----|
E|-1----1----1----1----1----1----1-----1-----|-1----1----1----1----1----1----1-----1-----|


E|---------------------------------|---------------------------------|-------------------------------------------|
B|---------------------------------|---------------------------------|-------------------------------------------|
G|---------------------------------|---------------------------------|-------------------------------------------|
D|-----------5---------------5-----|-----------5---------------5-----|-------------------------------3-----3-----|
A|-----------5---------------5-----|-----------5---------------5-----|-------------------------------3-----3-----|
E|-3----3----3-----3----3----3-----|-3----3----3-----3----3----3-----|-1----1----1----1----1----1----1-----1-----|


E|-------------------------------------------|--------------------------------------------------------|
B|-------------------------------------------|--------------------------------------------------------|
G|-------------------------------------------|------------------------------------%-------------------|
D|-------------------------------3-----3-----|------------------------------------%-------------------|
A|-------------------------------3-----3-----|--------------------------------------------------------|
E|-1----1----1----1----1----1----1-----1-----|-0----0----0----0----0----0----0---------0----0----0----|


E|---------------------------------------------------|----------------------------------------------------|
B|---------------------------------------------------|----------------------------------------------------|
G|---------------------%------------------------%----|----------------------------------------------------|
D|---------------------%------------------------%----|-------------------------------2--------------------|
A|---------------------------------------------------|-------------------------------2--------------------|
E|-0----0----0----0---------0----0----0----0---------|-0----0----0----0----0----0----------0----0----0----|


E|-------------------------------------------|--------------------------------------------------------|
B|-------------------------------------------|--------------------------------------------------------|
G|-------------------------------------------|------------------------------------%-------------------|
D|----------------2--------------------3-----|------------------------------------%-------------------|
A|----------------2--------------------3-----|--------------------------------------------------------|
E|-0----0----0----------0----0----0----------|-0----0----0----0----0----0----0---------0----0----0----|


E|---------------------------------------------------|----------------------------------------------------|
B|---------------------------------------------------|----------------------------------------------------|
G|---------------------%------------------------%----|----------------------------------------------------|
D|---------------------%------------------------%----|-------------------------------2--------------------|
A|---------------------------------------------------|-------------------------------2--------------------|
E|-0----0----0----0---------0----0----0----0---------|-0----0----0----0----0----0----------0----0----0----|


E|-------------------------------------------|----------------------------------------------------|
B|-------------------------------------------|----------------------------------------------------|
G|-------------------------------------------|----------------------------------------------------|
D|----------------2-----2----2----2----3-----|-------------------------------2--------------------|
A|----------------2--------------------3-----|-------------------------------2--------------------|
E|-0----0----0-------------------------------|-0----0----0----0----0----0----------0----0----0----|


E|-------------------------------------------|-------------------------------------------|
B|-------------------------------------------|-------------------------------------------|
G|-------------------------------------------|-------------------------------------------|
D|----------------2-----2----2----2----3-----|----------------2-----2----2----2----3-----|
A|----------------2--------------------3-----|----------------2--------------------3-----|
E|-0----0----0-------------------------------|-0----0----0-------------------------------|


E|-------------------------------------------|----------------------------------------------------|
B|-------------------------------------------|----------------------------------------------------|
G|-------------------------------------------|----------------------------------------------------|
D|----------------2-----2----2----2----3-----|-------------------------------2--------------------|
A|----------------2--------------------3-----|-------------------------------2--------------------|
E|-0----0----0-------------------------------|-0----0----0----0----0----0----------0----0----0----|


E|-------------------------------------------|----------------------------------------------------|
B|-------------------------------------------|----------------------------------------------------|
G|-------------------------------------------|----------------------------------------------------|
D|----------------2-----2----2----2----3-----|-------------------------------2--------------------|
A|----------------2--------------------3-----|-------------------------------2--------------------|
E|-0----0----0-------------------------------|-0----0----0----0----0----0----------0----0----0----|


E|-------------------------------------------|----------------------------------------------------|
B|-------------------------------------------|----------------------------------------------------|
G|-------------------------------------------|----------------------------------------------------|
D|----------------2-----2----2----2----3-----|-------------------------------2--------------------|
A|----------------2--------------------3-----|-------------------------------2--------------------|
E|-0----0----0-------------------------0-----|-0----0----0----0----0----0----------0----0----0----|


E|-------------------------------------------|----------------------------------------------------|
B|-------------------------------------------|----------------------------------------------------|
G|-------------------------------------------|----------------------------------------------------|
D|----------------2-----2----2----2----3-----|-------------------------------2--------------------|
A|----------------2--------------------3-----|-------------------------------2--------------------|
E|-0----0----0-------------------------------|-0----0----0----0----0----0----------0----0----0----|


E|-------------------------------------------|----------------------------------------------------|
B|-------------------------------------------|----------------------------------------------------|
G|-------------------------------------------|----------------------------------------------------|
D|----------------2--------------------3-----|-------------------------------2--------------------|
A|----------------2--------------------3-----|-------------------------------2--------------------|
E|-0----0----0----------0----0----0----------|-0----0----0----0----0----0----------0----0----0----|


E|-------------------------------------------|---------------------------------|---------------------------------|
B|-------------------------------------------|---------------------------------|---------------------------------|
G|-------------------------------------------|---------------------------------|---------------------------------|
D|----------------2--------------------3-----|-----------5---------------5-----|-----------5---------------5-----|
A|----------------2--------------------3-----|-----------5---------------5-----|-----------5---------------5-----|
E|-0----0----0----------0----0----0----------|-3----3----3-----3----3----3-----|-3----3----3-----3----3----3-----|


E|-------------------------------------------|---------------------------------|---------------------------------|
B|-------------------------------------------|---------------------------------|---------------------------------|
G|-------------------------------------------|---------------------------------|---------------------------------|
D|-------------------------------2-----2-----|-----------3---------------3-----|-----------5---------------5-----|
A|-------------------------------2-----2-----|-----------3---------------3-----|-----------5---------------5-----|
E|-0----0----0----0----0----0----0-----0-----|-1----1----1-----1----1----1-----|-3----3----3-----3----3----3-----|


E|---------------------------------|----------------------------------------------------|
B|---------------------------------|----------------------------------------------------|
G|---------------------------------|----------------------------------------------------|
D|-----------5---------------5-----|-------------------------------2--------------------|
A|-----------5---------------5-----|-------------------------------2--------------------|
E|-3----3----3-----3----3----3-----|-0----0----0----0----0----0----------0----0----0----|


E|-------------------------------------------|--------------------------------------------------------|
B|-------------------------------------------|--------------------------------------------------------|
G|-------------------------------------------|------------------------------------%-------------------|
D|----------------2--------------------3-----|-2----2----2----2----2----2----2----%----2----2----2----|
A|----------------2--------------------3-----|-2----2----2----2----2----2----2---------2----2----2----|
E|-0----0----0----------0----0----0----------|-0----0----0----0----0----0----0---------0----0----0----|


E|---------------------------------|
B|---------------------------------|
G|---------------------%----%------|
D|-2----2----2----2----%----%------|
A|-2----2----2----2----------------|
E|-0----0----0----0----------------|

    

Nézd meg a videót és ismerd meg a leggyorsabb utat, hogyan tanulhatod meg kedvenc számaid gitáron!