Hogyan játszd el gitáron a Metallica – One dalt?

Metallica One – GITÁR PRO TAB, KOTTA, AKKORDOK

Kotta típusa: Guitare 9 W Disto

(Általában egy zeneszám minden kottája: gitár, szólógitár, basszusgitár, ének, zongora, dob stb. megtalálható az oldalon, de mindegyik egy külön bejegyzésben. Ha egy másik hangszer gitártabos kottáját keresed, akkor az oldal alján vagy a keresőben megtalálod. Sokszor a zenekar tagjának a neve lesz a kotta kategóriája.)

        


E|---------|---------|---------|---------|---------|---------|---------|---------|--------|
B|---------|---------|---------|---------|---------|---------|---------|---------|--------|
G|-%-------|-%-------|-%-------|-%-------|-%-------|-%-------|-%-------|-%-------|-%------|
D|-%-------|-%-------|-%-------|-%-------|-%-------|-%-------|-%-------|-%-------|-%------|
A|---------|---------|---------|---------|---------|---------|---------|---------|--------|
E|---------|---------|---------|---------|---------|---------|---------|---------|--------|


E|---------|---------|---------|---------|---------|---------|---------|--------|---------|
B|---------|---------|---------|---------|---------|---------|---------|--------|---------|
G|-%-------|-%-------|-%-------|-%-------|-%-------|-%-------|-%-------|-%------|-%-------|
D|-%-------|-%-------|-%-------|-%-------|-%-------|-%-------|-%-------|-%------|-%-------|
A|---------|---------|---------|---------|---------|---------|---------|--------|---------|
E|---------|---------|---------|---------|---------|---------|---------|--------|---------|


E|---------|---------|---------|---------|---------|---------|---------|--------------|
B|---------|---------|---------|---------|---------|---------|---------|--------------|
G|-%-------|-%-------|-%-------|-%-------|-%-------|-%-------|-%-------|-%------%-----|
D|-%-------|-%-------|-%-------|-%-------|-%-------|-%-------|-%-------|-%------%-----|
A|---------|---------|---------|---------|---------|---------|---------|--------------|
E|---------|---------|---------|---------|---------|---------|---------|--------------|


E|--------------|--------------|--------------|--------------|--------------|--------------|
B|--------------|--------------|--------------|--------------|--------------|--------------|
G|-%------%-----|-%------%-----|-%------%-----|-%------%-----|-%------%-----|-%------%-----|
D|-%------%-----|-%------%-----|-%------%-----|-%------%-----|-%------%-----|-%------%-----|
A|--------------|--------------|--------------|--------------|--------------|--------------|
E|--------------|--------------|--------------|--------------|--------------|--------------|


E|--------------|--------------|--------------|--------------|--------------|--------------|
B|--------------|--------------|--------------|--------------|--------------|--------------|
G|-%------%-----|-%------%-----|-%------%-----|-%------%-----|-%------%-----|-%------%-----|
D|-%------%-----|-%------%-----|-%------%-----|-%------%-----|-%------%-----|-%------%-----|
A|--------------|--------------|--------------|--------------|--------------|--------------|
E|--------------|--------------|--------------|--------------|--------------|--------------|


E|--------------|--------------|--------------|--------------|--------------|--------------|
B|--------------|--------------|--------------|--------------|--------------|--------------|
G|-%------%-----|-%------%-----|-%------%-----|-%------%-----|-%------%-----|-%------%-----|
D|-%------%-----|-%------%-----|-%------%-----|-%------%-----|-%------%-----|-%------%-----|
A|--------------|--------------|--------------|--------------|--------------|--------------|
E|--------------|--------------|--------------|--------------|--------------|--------------|


E|--------------|--------------|--------|--------------|--------------|--------------|
B|--------------|--------------|--------|--------------|--------------|--------------|
G|-%------%-----|-%------%-----|-%------|-%------%-----|-%------%-----|-%------%-----|
D|-%------%-----|-%------%-----|-%------|-%------%-----|-%------%-----|-%------%-----|
A|--------------|--------------|--------|--------------|--------------|--------------|
E|--------------|--------------|--------|--------------|--------------|--------------|


E|--------------|--------------|--------------|--------------|--------|----------------|
B|--------------|--------------|--------------|--------------|--------|----------------|
G|-%------%-----|-%------%-----|-%------%-----|-%------%-----|-%------|-%-------%------|
D|-%------%-----|-%------%-----|-%------%-----|-%------%-----|-%------|-%-------%------|
A|--------------|--------------|--------------|--------------|--------|----------------|
E|--------------|--------------|--------------|--------------|--------|----------------|


E|----------------|--------------|--------------|--------------|--------------|--------------|
B|----------------|--------------|--------------|--------------|--------------|--------------|
G|-%-------%------|-%------%-----|-%------%-----|-%------%-----|-%------%-----|-%------%-----|
D|-%-------%------|-%------%-----|-%------%-----|-%------%-----|-%------%-----|-%------%-----|
A|----------------|--------------|--------------|--------------|--------------|--------------|
E|----------------|--------------|--------------|--------------|--------------|--------------|


E|--------------|--------------|--------------|--------------|--------------|--------------|
B|--------------|--------------|--------------|--------------|--------------|--------------|
G|-%------%-----|-%------%-----|-%------%-----|-%------%-----|-%------%-----|-%------%-----|
D|-%------%-----|-%------%-----|-%------%-----|-%------%-----|-%------%-----|-%------%-----|
A|--------------|--------------|--------------|--------------|--------------|--------------|
E|--------------|--------------|--------------|--------------|--------------|--------------|


E|--------------|--------------|--------------|--------------|--------------|--------------|
B|--------------|--------------|--------------|--------------|--------------|--------------|
G|-%------%-----|-%------%-----|-%------%-----|-%------%-----|-%------%-----|-%------%-----|
D|-%------%-----|-%------%-----|-%------%-----|-%------%-----|-%------%-----|-%------%-----|
A|--------------|--------------|--------------|--------------|--------------|--------------|
E|--------------|--------------|--------------|--------------|--------------|--------------|


E|--------------|--------------|--------------|--------------|----------------|----------------|
B|--------------|--------------|--------------|--------------|----------------|----------------|
G|-%------%-----|-%------%-----|-%------%-----|-%------%-----|-%-------%------|-%-------%------|
D|-%------%-----|-%------%-----|-%------%-----|-%------%-----|-%-------%------|-%-------%------|
A|--------------|--------------|--------------|--------------|----------------|----------------|
E|--------------|--------------|--------------|--------------|----------------|----------------|


E|----------------|----------------|----------------|-----------------------|--------------|
B|----------------|----------------|----------------|-5------3----5----8----|-8------3-----|
G|-%-------%------|-%-------%------|-%-------%------|-5------4----5----7----|-7------4-----|
D|-%-------%------|-%-------%------|-%-------%------|-7------5----7----9----|-9------5-----|
A|----------------|----------------|----------------|-7------5----7----10---|-10-----5-----|
E|----------------|----------------|----------------|-----------------------|--------------|


E|---------|---------|-----------------------|--------------|---------|---------|-----------------------|
B|-4-------|-5-------|-5------3----5----8----|-8------3-----|-4-------|-5-------|-5------3----5----8----|
G|-4-------|-5-------|-5------4----5----7----|-7------4-----|-4-------|-5-------|-5------4----5----7----|
D|-4-------|-5-------|-7------5----7----9----|-9------5-----|-4-------|-5-------|-7------5----7----9----|
A|-6-------|-7-------|-7------5----7----10---|-10-----5-----|-6-------|-7-------|-7------5----7----10---|
E|---------|---------|-----------------------|--------------|---------|---------|-----------------------|


E|--------------|---------|---------|-----------------------|--------------|---------|
B|-8------3-----|-4-------|-5-------|-5------3----5----8----|-8------3-----|-4-------|
G|-7------4-----|-4-------|-5-------|-5------4----5----7----|-7------4-----|-4-------|
D|-9------5-----|-4-------|-5-------|-7------5----7----9----|-9------5-----|-4-------|
A|-10-----5-----|-6-------|-7-------|-7------5----7----10---|-10-----5-----|-6-------|
E|--------------|---------|---------|-----------------------|--------------|---------|


E|---------|-------------------------------|---------------------------|-----------------------|
B|-5-------|-------------------------------|---------------------------|-----------------------|
G|-5-------|-%----%----%----%----%----%----|-%----%----%----%----%-----|-%------%----%----%----|
D|-5-------|-%----%----%----%----%----%----|-%----%----%----%----%-----|-%------%----%----%----|
A|-7-------|-------------------------------|---------------------------|-----------------------|
E|---------|-------------------------------|---------------------------|-----------------------|


E|----------------------------------|---------|---------|---------|---------|---------|
B|----------------------------------|---------|---------|---------|---------|---------|
G|-%----%---%---%----%----%----%----|-%-------|-%-------|-%-------|-%-------|-%-------|
D|-%----%---%---%----%----%----%----|-%-------|-%-------|-%-------|-%-------|-%-------|
A|----------------------------------|---------|---------|---------|---------|---------|
E|----------------------------------|---------|---------|---------|---------|---------|


E|---------|---------|---------|---------|---------|---------|---------|---------|---------|
B|---------|---------|---------|---------|---------|---------|---------|---------|---------|
G|-%-------|-%-------|-%-------|-%-------|-%-------|-%-------|-%-------|-%-------|-%-------|
D|-%-------|-%-------|-%-------|-%-------|-%-------|-%-------|-%-------|-%-------|-%-------|
A|---------|---------|---------|---------|---------|---------|---------|---------|---------|
E|---------|---------|---------|---------|---------|---------|---------|---------|---------|


E|---------|---------|---------|---------|---------|---------|---------|---------|---------|
B|---------|---------|---------|---------|---------|---------|---------|---------|---------|
G|-%-------|-%-------|-%-------|-%-------|-%-------|-%-------|-%-------|-%-------|-%-------|
D|-%-------|-%-------|-%-------|-%-------|-%-------|-%-------|-%-------|-%-------|-%-------|
A|---------|---------|---------|---------|---------|---------|---------|---------|---------|
E|---------|---------|---------|---------|---------|---------|---------|---------|---------|


E|---------|---------|---------|---------|---------|---------|---------|-19--15--12--19--15--12--19--15--12--19--15--12--19--15--12--19--15--12--19--15--12--19--15--12--|
B|---------|---------|---------|---------|---------|---------|---------|-------------------------------------------------------------------------------------------------|
G|-%-------|-%-------|-%-------|-%-------|-%-------|-%-------|-%-------|-------------------------------------------------------------------------------------------------|
D|-%-------|-%-------|-%-------|-%-------|-%-------|-%-------|-%-------|-------------------------------------------------------------------------------------------------|
A|---------|---------|---------|---------|---------|---------|---------|-------------------------------------------------------------------------------------------------|
E|---------|---------|---------|---------|---------|---------|---------|-------------------------------------------------------------------------------------------------|


E|-20--15--12--20--15--12--20--15--12--19--15--12--20--15--12--20--15--12--20--15--12--19--15--12--|
B|-------------------------------------------------------------------------------------------------|
G|-------------------------------------------------------------------------------------------------|
D|-------------------------------------------------------------------------------------------------|
A|-------------------------------------------------------------------------------------------------|
E|-------------------------------------------------------------------------------------------------|


E|-------------------------------------------------------------------------------------------------|
B|-19--15--12--19--15--12--19--15--12--19--15--12--19--15--12--19--15--12--19--15--12--19--15--12--|
G|-------------------------------------------------------------------------------------------------|
D|-------------------------------------------------------------------------------------------------|
A|-------------------------------------------------------------------------------------------------|
E|-------------------------------------------------------------------------------------------------|


E|-------------------------------------------------------------------------------------------------|
B|-20--15--12--20--15--12--20--15--12--20--15--12--20--15--12--20--15--12--20--15--12--19--15--12--|
G|-------------------------------------------------------------------------------------------------|
D|-------------------------------------------------------------------------------------------------|
A|-------------------------------------------------------------------------------------------------|
E|-------------------------------------------------------------------------------------------------|


E|-------------------------------------------------------------------------------------------------|
B|-17--13--10--17--13--10--17--13--10--17--13--10--17--13--10--17--13--10--17--13--10--17--13--10--|
G|-------------------------------------------------------------------------------------------------|
D|-------------------------------------------------------------------------------------------------|
A|-------------------------------------------------------------------------------------------------|
E|-------------------------------------------------------------------------------------------------|


E|-------------------------------------------------------------------------------------------------|
B|-18--13--10--18--13--10--18--13--10--18--13--10--18--13--10--18--13--10--18--13--10--18--13--10--|
G|-------------------------------------------------------------------------------------------------|
D|-------------------------------------------------------------------------------------------------|
A|-------------------------------------------------------------------------------------------------|
E|-------------------------------------------------------------------------------------------------|


E|-------------------------------------------------------------|----------------------------------------------------|
B|-17---10---12---17---18---10---17---7----8----17---8----10---|-17---7----8----17---5----7----17---3----5----------|
G|-------------------------------------------------------------|----------------------------------------------%-----|
D|-------------------------------------------------------------|----------------------------------------------%-----|
A|-------------------------------------------------------------|----------------------------------------------------|
E|-------------------------------------------------------------|----------------------------------------------------|


E|-12----14----15----17----|-14----15----17----19----|-22-----22----22----|-22-----22---------15---|
B|-12----------------------|-------------------------|--------------------|--------------15--------|
G|-------------------------|-------------------------|--------------------|------------------------|
D|-------------------------|-------------------------|--------------------|------------------------|
A|-------------------------|-------------------------|--------------------|------------------------|
E|-------------------------|-------------------------|--------------------|------------------------|


E|-17---15------------------15---17---15------------------15---|-17---15------------------15---17---15------------------15---|
B|-----------15---17---19------------------15---17---19--------|-----------15---17---19------------------15---17---19--------|
G|-------------------------------------------------------------|-------------------------------------------------------------|
D|-------------------------------------------------------------|-------------------------------------------------------------|
A|-------------------------------------------------------------|-------------------------------------------------------------|
E|-------------------------------------------------------------|-------------------------------------------------------------|


E|-17---15------------------15---17--15----------15--17---15----|-19--17--15------19--17--15------19--17--15-------19--17--15-------|
B|-----------15---17---19----------------15--17-----------------|-------------15--------------15--------------15---------------15---|
G|--------------------------------------------------------------|-------------------------------------------------------------------|
D|--------------------------------------------------------------|-------------------------------------------------------------------|
A|--------------------------------------------------------------|-------------------------------------------------------------------|
E|--------------------------------------------------------------|-------------------------------------------------------------------|


E|-19---17--------19---17--------19---17--------19---17---15---|------15--------15--------15--------15---|
B|-----------15-------------15-------------15------------------|-18--------18--------18--------18--------|
G|-------------------------------------------------------------|-----------------------------------------|
D|-------------------------------------------------------------|-----------------------------------------|
A|-------------------------------------------------------------|-----------------------------------------|
E|-------------------------------------------------------------|-----------------------------------------|


E|-18---15--------15---18---15--------15---|-19---17---15---17----17---15--------15----|
B|-----------18------------------18--------|--------------------------------19---------|
G|-----------------------------------------|-------------------------------------------|
D|-----------------------------------------|-------------------------------------------|
A|-----------------------------------------|-------------------------------------------|
E|-----------------------------------------|-------------------------------------------|


E|---------------------------------------------|--------------------------------------------------------|
B|-19---17---15---17----15--17--15-------15----|-13--15--13--12---13----12--13--12-------12-------------|
G|----------------------------------17---------|------------------------------------14--------14---12---|
D|---------------------------------------------|--------------------------------------------------------|
A|---------------------------------------------|--------------------------------------------------------|
E|---------------------------------------------|--------------------------------------------------------|


E|-------------------------------------------------|------------------------------------|
B|-------------------------------------------------|------------------------------------|
G|-14---12--------12--------12---14----14----14----|-14----%-----14----14--14--12-------|
D|-----------14--------14--------------------------|-------%-----------------------14---|
A|-------------------------------------------------|------------------------------------|
E|-------------------------------------------------|------------------------------------|


E|-------------------------------------|--------------------------|---------------------------------|
B|-------------------------------------|--------------------------|-----------15--------------15----|
G|-12----------12----------------------|--------------------------|-----------15--------------15----|
D|-------14----------14----13----12----|--------------------------|-17---17---------17---17---------|
A|-------------------------------------|-14----13----12----10-----|---------------------------------|
E|-------------------------------------|--------------------------|---------------------------------|


E|---------------------------------|-------------------------------------------------|
B|-----------15--------------15----|-17----17--17--17--17--17--17----17--17--17--17--|
G|-----------15--------------15----|-17----17--17--17--17--17--17----17--17--17--17--|
D|-17---17---------17---17---------|-------------------------------------------------|
A|---------------------------------|-------------------------------------------------|
E|---------------------------------|-------------------------------------------------|


E|----------------------------------|---------------------------------|-----------------------------|
B|-17----17----17---15--------15----|-----------15--------------15----|------17----17---15-----15---|
G|-17----17----17---15--------15----|-----------15--------------15----|------17----17---15----------|
D|-----------------------17---------|-17---17---------17---17---------|-17--------------------------|
A|----------------------------------|---------------------------------|-----------------------------|
E|----------------------------------|---------------------------------|-----------------------------|


E|------15--------15--------15--------15---|------15--------15----------|--------------------------------------------------------|
B|-18--------18--------18--------18--------|-18--------18--------18-----|--------------------------------------------------------|
G|-----------------------------------------|----------------------------|------------------------------------%-------------------|
D|-----------------------------------------|----------------------------|------------------------------------%-------------------|
A|-----------------------------------------|----------------------------|--------------------------------------------------------|
E|-----------------------------------------|----------------------------|-3----3----3----3----3----3----3---------10---10---10---|


E|----------------------------------------------------|---------|---------|--------------------------------------------------------|
B|----------------------------------------------------|---------|---------|--------------------------------------------------------|
G|----------------------------------------------------|-%-------|-%-------|------------------------------------%-------------------|
D|----------------------------------------------------|-%-------|-%-------|------------------------------------%-------------------|
A|----------------------------------------------------|---------|---------|--------------------------------------------------------|
E|-10---10---10---9----9----9----8----8----8----7-----|---------|---------|-0----0----0----0----0----0----0---------10---10---10---|


E|-------------------------------------------------------------|------------------------------------------------|
B|-------------------------------------------------------------|---------------------------------7----7----7----|
G|-------------------------------------------------------------|-9----9----9----7-----7-------------------------|
D|-------------------------------------------------------------|---------------------------9--------------------|
A|-------------------------------------------------------------|------------------------------------------------|
E|-10---10---10---9----9----9----8----8----8----7----7----7----|------------------------------------------------|


E|---------------------------------------|-------------------------------------------|
B|------------------8----8----8----7-----|-8----7---------7-----7--------------------|
G|-9-----9-------------------------------|-----------9---------------9----7----9-----|
D|------------9--------------------------|-------------------------------------------|
A|---------------------------------------|-------------------------------------------|
E|---------------------------------------|-------------------------------------------|


E|-------------------------------------------|-------------------------------------------|
B|-------------------------------------------|-10---8----7----8-----8----7---------7-----|
G|-9----7----6----7-----7----6---------6-----|--------------------------------9----------|
D|--------------------------------9----------|-------------------------------------------|
A|-------------------------------------------|-------------------------------------------|
E|-------------------------------------------|-------------------------------------------|


E|-------------------------------------------|------------------------------------------------|
B|-------------------------------------------|---------------------------------7----7----7----|
G|-9----7----6----7-----7----6---------6-----|-9----9----9----7-----7-------------------------|
D|--------------------------------9----------|---------------------------9--------------------|
A|-------------------------------------------|------------------------------------------------|
E|-------------------------------------------|------------------------------------------------|


E|---------------------------------------|-------------------------------------------|
B|------------------8----8----8----7-----|-8----7---------7-----7--------------------|
G|-9-----9-------------------------------|-----------9---------------9----7----9-----|
D|------------9--------------------------|-------------------------------------------|
A|---------------------------------------|-------------------------------------------|
E|---------------------------------------|-------------------------------------------|


E|-------------------------------------------|-------------------------------------------|
B|-------------------------------------------|-------------------------------------------|
G|-9----7----6----7-----7----6---------6-----|-6-----------------------------------------|
D|--------------------------------9----------|------9----7----9-----9----7----5----7-----|
A|-------------------------------------------|-------------------------------------------|
E|-------------------------------------------|-------------------------------------------|


E|-------------------------------------------|----------------------------------------------------|
B|-------------------------------------------|----------------------------------------------------|
G|-------------------------------------------|-%----%----%----%----%----%----%-----%----%----%----|
D|-7----5----4----5-----4----2----0----4-----|-%----%----%----%----%----%----%-----%----%----%----|
A|-------------------------------------------|----------------------------------------------------|
E|-------------------------------------------|----------------------------------------------------|


E|-------------------------------------------|----------------------------------------------------|
B|-------------------------------------------|----------------------------------------------------|
G|-%----%----%----%-----%----%----%----%-----|-%----%----%----%----%----%----%-----%----%----%----|
D|-%----%----%----%-----%----%----%----%-----|-%----%----%----%----%----%----%-----%----%----%----|
A|-------------------------------------------|----------------------------------------------------|
E|-------------------------------------------|----------------------------------------------------|


E|-------------------------------------------|---------------------------------|---------------------------------|
B|-------------------------------------------|---------------------------------|---------------------------------|
G|-%----%----%----%-----%----%----%----%-----|-%----%----%-----%----%----%-----|-%----%----%-----%----%----%-----|
D|-%----%----%----%-----%----%----%----%-----|-%----%----%-----%----%----%-----|-%----%----%-----%----%----%-----|
A|-------------------------------------------|---------------------------------|---------------------------------|
E|-------------------------------------------|---------------------------------|---------------------------------|


E|-------------------------------------------|---------------------------------|---------------------------------|
B|-------------------------------------------|---------------------------------|---------------------------------|
G|-%----%----%----%----%----%----%-----%-----|-%----%----%-----%----%----%-----|-%----%----%-----%----%----%-----|
D|-%----%----%----%----%----%----%-----%-----|-%----%----%-----%----%----%-----|-%----%----%-----%----%----%-----|
A|-------------------------------------------|---------------------------------|---------------------------------|
E|-------------------------------------------|---------------------------------|---------------------------------|


E|---------------------------------|----------------------------------------------------|
B|---------------------------------|----------------------------------------------------|
G|-%----%----%-----%----%----%-----|-%----%----%----%----%----%----%-----%----%----%----|
D|-%----%----%-----%----%----%-----|-%----%----%----%----%----%----%-----%----%----%----|
A|---------------------------------|----------------------------------------------------|
E|---------------------------------|----------------------------------------------------|


E|-------------------------------------------|--------------------------------------------------------|
B|-------------------------------------------|--------------------------------------------------------|
G|-%----%----%----%-----%----%----%----%-----|-%----%----%----%----%----%----%----%----%----%----%----|
D|-%----%----%----%-----%----%----%----%-----|-%----%----%----%----%----%----%----%----%----%----%----|
A|-------------------------------------------|--------------------------------------------------------|
E|-------------------------------------------|--------------------------------------------------------|


E|---------------------------------|
B|---------------------------------|
G|-%----%----%----%----%----%------|
D|-%----%----%----%----%----%------|
A|---------------------------------|
E|---------------------------------|

    

Nézd meg a videót és ismerd meg a leggyorsabb utat, hogyan tanulhatod meg kedvenc számaid gitáron!