Hogyan játszd el gitáron a Metallica – Outlaw Torn Outro dalt?

Metallica Outlaw Torn Outro – GITÁR PRO TAB, KOTTA, AKKORDOK

Kotta típusa: Gtr 1

(Általában egy zeneszám minden kottája: gitár, szólógitár, basszusgitár, ének, zongora, dob stb. megtalálható az oldalon, de mindegyik egy külön bejegyzésben. Ha egy másik hangszer gitártabos kottáját keresed, akkor az oldal alján vagy a keresőben megtalálod. Sokszor a zenekar tagjának a neve lesz a kotta kategóriája.)

        


D#|--------------------------------------------------------------|--------------------------------------------------------------|
A#|--------------------------------------------------------------|--------------------------------------------------------------|
F#|--------------------------------------------------------------|--------------------------------------------------------------|
C#|--------------------------------------------------------------|-------------------------------------------------7---7---5----|
G#|-----5---7-------5---7-------5---7-------5---7---7---7---5----|-----5---7-------5---7-------5---7-------5---7----------------|
D#|-0-----------0-----------0-----------0------------------------|-0-----------0-----------0-----------0------------------------|


D#|--------------------------------------------------------------|-------------------------------------------------------------------|
A#|--------------------------------------------------------------|-------------------------------------------------------------------|
F#|--------------------------------------------------------------|-------------------------------------------------------------------|
C#|--------------------------------------------------------------|-------------------------------------------------7---7---5--7--5---|
G#|-----5---7-------5---7-------5---7-------5---7---7---7---5----|-----5---7-------5---7-------5---7-------5---7---------------------|
D#|-0-----------0-----------0-----------0------------------------|-0-----------0-----------0-----------0-----------------------------|


D#|--------------------------------------------------------------|--------------------------------------------------------------|
A#|--------------------------------------------------------------|--------------------------------------------------------------|
F#|--------------------------------------------------------------|--------------------------------------------------------------|
C#|--------------------------------------------------------------|-------------------------------------------------7---7---5----|
G#|-----5---7-------5---7-------5---7-------5---7---7---7---5----|-----5---7-------5---7-------5---7-------5---7----------------|
D#|-0-----------0-----------0-----------0------------------------|-0-----------0-----------0-----------0------------------------|


D#|--------------------------------------------------------------|--------------------------------------------------------------|
A#|--------------------------------------------------------------|--------------------------------------------------------------|
F#|--------------------------------------------------------------|--------------------------------------------------------------|
C#|--------------------------------------------------------------|-------------------------------------5---5-------5---7---5----|
G#|-----5---7-------5---7-------5---7-------5---7---7---7---5----|-----5---7-------5---7-------5---7-----------7----------------|
D#|-0-----------0-----------0-----------0------------------------|-0-----------0-----------0------------------------------------|


D#|---------------------------------------------------------------|-------------------------------------------------------------|
A#|---------------------------------------------------------------|-------------------------------------------------------------|
F#|---------------------------------------------------------------|-------------------------------------------------------------|
C#|-----------------5----------------------5---7----7---5---7--5--|-----------------5----------------------5---7----7---5---7---|
G#|-5---7---7---7-------7----7--7--5---7--------------------------|-5---7---7---7-------7----7--7--5---7------------------------|
D#|---------------------------------------------------------------|-------------------------------------------------------------|


D#|---------------------------------------------------------------|-------------------------------------------------------------|
A#|-----------------12--------------------------------------------|-----------------12-----------------12--12------12--14--12---|
F#|-----------------12---------------------12--14---14--12--14-12-|-----------------12-----------------12--12------12--14--12---|
C#|-12--14--14--14------14---14-14-12--14-------------------------|-12--14--14--14------14---14-14-14----------14---------------|
G#|---------------------------------------------------------------|-------------------------------------------------------------|
D#|---------------------------------------------------------------|-------------------------------------------------------------|


D#|--------------------------------------------------------------|---------------------------------------------------------------------|
A#|--------------------------------------------------------------|---------------------------------------------------------------------|
F#|--------------------------------------------------------------|---------------------------------------------------------------------|
C#|--------------------------------------------------------------|-------------------------------------------------5--7--5-----5---7---|
G#|-----5---7-------5---7-------5---7-------5---7---7---7---5----|-----5---7-------5---7-------5---7-------5---7------------7----------|
D#|-0-----------0-----------0-----------0------------------------|-0-----------0-----------0-----------0-------------------------------|


D#|--------------------------------------------------------------|---------------------------------------------------------------------|
A#|--------------------------------------------------------------|---------------------------------------------------------------------|
F#|--------------------------------------------------------------|---------------------------------------------------------------------|
C#|--------------------------------------------------------------|---------------------------------5---7------7------7------7----------|
G#|-----5---7-------5---7-------5---7-------5---7---7---7---5----|-----5---7-------5---7-------7----------10-----10-----10-----10--7---|
D#|-0-----------0-----------0-----------0------------------------|-0-----------0-----------0-------------------------------------------|


D#|--------------------------------------------------------------|-------------------------------------------------------------------|
A#|--------------------------------------------------------------|-------------------------------------------------------------------|
F#|--------------------------------------------------------------|-------------------------------------------------------------------|
C#|--------------------------------------------------------------|-------------------------------------------------7---9--9--9---5---|
G#|-----5---7-------5---7-------5---7-------5---7---7---7---5----|-----5---7-------5---7-------5---7-------5---7---------------------|
D#|-0-----------0-----------0-----------0------------------------|-0-----------0-----------0-----------0-----------------------------|


D#|--------------------------------------------------------------|-----------------------------------------------------------------------|
A#|--------------------------------------------------------------|-----------------------------------------------------------------------|
F#|--------------------------------------------------------------|-----------------------------------------------------------------------|
C#|--------------------------------------------------------------|-----------------------------5--5--5-----------------------5-----------|
G#|-----5---7-------5---7-------5---7-------5---7---7---7---5----|-----5---7-------5---7-----------------7--7--7---5--5--5-------5--7----|
D#|-0-----------0-----------0-----------0------------------------|-0-----------0-----------0---------------------------------------------|


D#|-----------------------------------------------------------------|---------------------------------------------------------------|
A#|-----------------------------------------------------------------|---------------------------------------------------------------|
F#|-12--12----------------------------------------------------------|-12--12--------------------------------------------------------|
C#|-12--12--14-12---------------------------------------------------|-12--12--14-12-------------------------------------------------|
G#|---------------14-12----------------------10--12---12--10--12-10-|---------------14-12----------------------10--12---12--10--12--|
D#|---------------------15--12---12--10--12-------------------------|---------------------15--12---12--10--12-----------------------|


D#|----------------------------------------------------------------------|-----------------------------------12------------------------------------------|
A#|-----------------12-------------------------12--12-14--14-14--14--12--|-----------------12------------12-----12-X--X--12-12----12-12-12-12-12-X---0---|
F#|-----------------12-------------------------12--12-14--14-14--14--12--|-----------------12------------12-----12-X--X--12-12----12-12-12-12-12-X-------|
C#|-12--14--14--14------14---14-14-12-14-14-14---------------------------|-12--14--14--14------14--14-14-------------------------------------------------|
G#|----------------------------------------------------------------------|-------------------------------------------------------------------------------|
D#|----------------------------------------------------------------------|-----------------------------------------------------12------------------------|

    

Nézd meg a videót és ismerd meg a leggyorsabb utat, hogyan tanulhatod meg kedvenc számaid gitáron!