Hogyan játszd el gitáron a Metallica – St Anger dalt?

Metallica St Anger – GITÁR PRO TAB, KOTTA, AKKORDOK

Kotta típusa: James Alan Hetfield

(Általában egy zeneszám minden kottája: gitár, szólógitár, basszusgitár, ének, zongora, dob stb. megtalálható az oldalon, de mindegyik egy külön bejegyzésben. Ha egy másik hangszer gitártabos kottáját keresed, akkor az oldal alján vagy a keresőben megtalálod. Sokszor a zenekar tagjának a neve lesz a kotta kategóriája.)

        


D|------|-----------------------------------------|-----------------------------------------|
A|------|-----------------------------------------|-----------------------------------------|
F|------|-----------------------------------------|-----------------------------------------|
C|------|-----------------------------------------|-----------------------------------------|
G|------|-----------------------------------------|---------------------3----3----3---------|
C|-0----|-1----2----2----1----2----1----0----2----|-1----0----1----2-------------------0----|


D|-----------------------------------------|-----------------------------------------|
A|-----------------------------------------|-----------------------------------------|
F|-----------------------------------------|-----------------------------------------|
C|-----------------------------------------|-----------------------------------------|
G|-----------------------------------------|---------------------3----3----3---------|
C|-1----2----2----1----2----1----0----2----|-1----0----1----2-------------------0----|


D|-----------------------------------------|-----------------------------------------|
A|-----------------------------------------|-----------------------------------------|
F|-----------------------------------------|-----------------------------------------|
C|-----------------------------------------|-----------------------------------------|
G|-----------------------------------------|---------------------3----3----3---------|
C|-1----2----2----1----2----1----0----2----|-1----0----1----2-------------------0----|


D|-----------------------------------------|-------------------|------------------|
A|-----------------------------------------|-------------------|------------------|
F|-----------------------------------------|-----------%-------|-%------%---------|
C|-----------------------------------------|-----------%-------|-%------%---------|
G|-----------------------------------------|-------------------|------------------|
C|-1----2----2----1----2----1----0----2----|-1----X------------|-------------0----|


D|-----------------------------------------|-----------------------------------------|
A|-----------------------------------------|-----------------------------------------|
F|-----------------------------------------|-----------------------------------------|
C|-----------------------------------------|---------------------3----3----3---------|
G|---------------------2--------------2----|---------------------3----3----3---------|
C|-1----2----2----1----2----1----0----2----|-1----0----1----2-------------------0----|


D|-----------------------------------------|-----------------------------------------|
A|-----------------------------------------|-----------------------------------------|
F|-----------------------------------------|-----------------------------------------|
C|-----------------------------------------|---------------------3----3----3---------|
G|---------------------2--------------2----|---------------------3----3----3---------|
C|-1----2----2----1----2----1----0----2----|-1----0----1----2-------------------0----|


D|-----------------------------------------|-----------------------------------------|
A|-----------------------------------------|-----------------------------------------|
F|-----------------------------------------|-----------------------------------------|
C|-----------------------------------------|---------------------3----3----3---------|
G|---------------------2--------------2----|---------------------3----3----3---------|
C|-1----2----2----1----2----1----0----2----|-1----0----1----2-------------------0----|


D|-----------------------------------------|-----------------------------------------|
A|-----------------------------------------|-----------------------------------------|
F|-----------------------------------------|-----------------------------------------|
C|-----------------------------------------|-----------------------------------------|
G|-----------------------------------------|-----------------------------------------|
C|-1----2----2----1----2----1----0----2----|-1----0----2----1----0----2----1----0----|


D|-------------------------------|-----------------------------------------|-----------------------------------------|
A|-------------------------------|-----------------------------------------|-----------------------------------------|
F|-------------------------------|-----------------------------------------|-----------------------------------------|
C|-------------------------------|-----------------------------------------|-----------------------------------------|
G|-----------3----3----3---------|-----------------------------------------|---------------------3----3----3---------|
C|-1----1-------------------0----|-1----2----2----1----2----1----0----2----|-1----0----1----2-------------------0----|


D|-----------------------------------------|-----------------------------------------|
A|-----------------------------------------|-----------------------------------------|
F|-----------------------------------------|-----------------------------------------|
C|-----------------------------------------|-----------------------------------------|
G|-----------------------------------------|---------------------3----3----3---------|
C|-1----2----2----1----2----1----0----2----|-1----0----1----2-------------------0----|


D|-----------------------------------------|-----------------------------------------|
A|-----------------------------------------|-----------------------------------------|
F|-----------------------------------------|-----------------------------------------|
C|-----------------------------------------|-----------------------------------------|
G|-----------------------------------------|---------------------3----3----3---------|
C|-1----2----2----1----2----1----0----2----|-1----0----1----2-------------------0----|


D|-----------------------------------------|-----------------------------------------|
A|-----------------------------------------|-----------------------------------------|
F|-----------------------------------------|-----------------------------------------|
C|-----------------------------------------|-----------------------------------------|
G|-----------------------------------------|-----------------------------------------|
C|-1----2----2----1----2----1----0----2----|-1----0----2----1----0----2----1----0----|


D|-------------------------------|-----------------------------------------|-----------------------------------------|
A|-------------------------------|-----------------------------------------|-----------------------------------------|
F|-------------------------------|-----------------------------------------|-----------------------------------------|
C|-------------------------------|-----------------------------------------|---------------------3----3----3---------|
G|-----------3----3----3---------|---------------------2--------------2----|---------------------3----3----3---------|
C|-1----1-------------------0----|-1----2----2----1----2----1----0----2----|-1----0----1----2-------------------0----|


D|-----------------------------------------|-----------------------------------------|
A|-----------------------------------------|-----------------------------------------|
F|-----------------------------------------|-----------------------------------------|
C|-----------------------------------------|---------------------3----3----3---------|
G|---------------------2--------------2----|---------------------3----3----3---------|
C|-1----2----2----1----2----1----0----2----|-1----0----1----2-------------------0----|


D|-----------------------------------------|-----------------------------------------|
A|-----------------------------------------|-----------------------------------------|
F|-----------------------------------------|-----------------------------------------|
C|-----------------------------------------|---------------------3----3----3---------|
G|---------------------2--------------2----|---------------------3----3----3---------|
C|-1----2----2----1----2----1----0----2----|-1----0----1----2-------------------0----|


D|-----------------------------------------|-----------------------------------------|
A|-----------------------------------------|-----------------------------------------|
F|-----------------------------------------|-----------------------------------------|
C|-----------------------------------------|---------------------3----3----3---------|
G|---------------------2--------------2----|---------------------3----3----3---------|
C|-1----2----2----1----2----1----0----2----|-1----0----1----2-------------------0----|


D|-----------------------------------------|-----------------------------------------|
A|-----------------------------------------|-----------------------------------------|
F|-----------------------------------------|-----------------------------------------|
C|-----------------------------------------|---------------------3----3----3---------|
G|---------------------2--------------2----|---------------------3----3----3---------|
C|-1----2----2----1----2----1----0----2----|-1----0----1----2-------------------0----|


D|-----------------------------------------|-----------------------------------------|
A|-----------------------------------------|-----------------------------------------|
F|-----------------------------------------|-----------------------------------------|
C|-----------------------------------------|---------------------3----3----3---------|
G|---------------------2--------------2----|---------------------3----3----3---------|
C|-1----2----2----1----2----1----0----2----|-1----0----1----2-------------------0----|


D|-----------------------------------------|-----------------------------------------|
A|-----------------------------------------|-----------------------------------------|
F|-----------------------------------------|-----------------------------------------|
C|-----------------------------------------|---------------------3----3----3---------|
G|---------------------2--------------2----|---------------------3----3----3---------|
C|-1----2----2----1----2----1----0----2----|-1----0----1----2-------------------0----|


D|-----------------------------------------|-----------------------------------------|
A|-----------------------------------------|-----------------------------------------|
F|-----------------------------------------|-----------------------------------------|
C|-----------------------------------------|---------------------3----3----3---------|
G|---------------------2--------------2----|---------------------3----3----3---------|
C|-1----2----2----1----2----1----0----2----|-1----0----1----2-------------------0----|


D|-------------------------------------------------------------|--------2--------------------|
A|-------------------------------------------------------------|--------1-----3---------1----|
F|-------------------------------------------------------------|-2-----------------2---------|
C|-------------------------------------------------------------|-0---------------------------|
G|-------------------------------------------------------------|-----------------------------|
C|-2----1----0----2----1----0----2----1----0----2----1----0----|-----------------------------|


D|---------------------------------|--------2--------------------|---------------------------------|
A|-3-----3----------3---------3----|--------1-----3---------1----|-3-----3----------3---------3----|
F|-------------2---------2---------|-2-----------------2---------|-------------2---------2---------|
C|---------------------------------|-0---------------------------|---------------------------------|
G|---------------------------------|-----------------------------|---------------------------------|
C|---------------------------------|-----------------------------|---------------------------------|


D|--------2--------------------|---------------------------------|--------2--------------------|
A|--------1-----3---------1----|-3-----3----------3---------3----|--------1-----3---------1----|
F|-2-----------------2---------|-------------2---------2---------|-2-----------------2---------|
C|-0---------------------------|---------------------------------|-0---------------------------|
G|-----------------------------|---------------------------------|-----------------------------|
C|-----------------------------|---------------------------------|-----------------------------|


D|---------------------------------|-----------------------------------------------------------------|
A|-3-----3----------3---------3----|-----------------------------------------------------------------|
F|-------------2---------2---------|-7---7---7---7---7---7---7---7---7---7---7---7---7---7---7---7---|
C|---------------------------------|-7---7---7---7---7---7---7---7---7---7---7---7---7---7---7---7---|
G|---------------------------------|-5---5---5---5---5---5---5---5---5---5---5---5---5---5---5---5---|
C|---------------------------------|-0---0---0---0---0---0---0---0---0---0---0---0---0---0---0---0---|


D|-----------------------------------------------------------------|-----------------------------------------------------------------|
A|-----------------------------------------------------------------|-----------------------------------------------------------------|
F|-5---5---5---5---5---5---5---5---10--10--10--10--9---9---9---9---|-7---7---7---7---7---7---7---7---7---7---7---7---7---7---7---7---|
C|-5---5---5---5---5---5---5---5---7---7---7---7---7---7---7---7---|-7---7---7---7---7---7---7---7---7---7---7---7---7---7---7---7---|
G|-3---3---3---3---3---3---3---3-----------------------------------|-5---5---5---5---5---5---5---5---5---5---5---5---5---5---5---5---|
C|-----------------------------------------------------------------|-0---0---0---0---0---0---0---0---0---0---0---0---0---0---0---0---|


D|-----------------------------------------------------------------|-----------------------------------------------------------------|
A|-----------------------------------------------------------------|-----------------------------------------------------------------|
F|-5---5---5---5---5---5---5---5---10--10--10--10--9---9---9---9---|-7---7---7---7---7---7---7---7---7---7---7---7---7---7---7---7---|
C|-5---5---5---5---5---5---5---5---7---7---7---7---7---7---7---7---|-7---7---7---7---7---7---7---7---7---7---7---7---7---7---7---7---|
G|-3---3---3---3---3---3---3---3-----------------------------------|-5---5---5---5---5---5---5---5---5---5---5---5---5---5---5---5---|
C|-----------------------------------------------------------------|-0---0---0---0---0---0---0---0---0---0---0---0---0---0---0---0---|


D|-----------------------------------------------------------------|-----------------------------------------------------------------|
A|-----------------------------------------------------------------|-----------------------------------------------------------------|
F|-5---5---5---5---5---5---5---5---10--10--10--10--9---9---9---9---|-7---7---7---7---7---7---7---7---7---7---7---7---7---7---7---7---|
C|-5---5---5---5---5---5---5---5---7---7---7---7---7---7---7---7---|-7---7---7---7---7---7---7---7---7---7---7---7---7---7---7---7---|
G|-3---3---3---3---3---3---3---3-----------------------------------|-5---5---5---5---5---5---5---5---5---5---5---5---5---5---5---5---|
C|-----------------------------------------------------------------|-0---0---0---0---0---0---0---0---0---0---0---0---0---0---0---0---|


D|-----------------------------------------------------------------|---------|---------------------------------|
A|-----------------------------------------------------------------|---------|---------------------------------|
F|-5---5---5---5---5---5---5---5---10--10--10--10--9---9---9---9---|-7-------|-----------%---------------%-----|
C|-5---5---5---5---5---5---5---5---7---7---7---7---7---7---7---7---|-7-------|-----------%---------------%-----|
G|-3---3---3---3---3---3---3---3-----------------------------------|-5-------|-0----0----------0----0----------|
C|-----------------------------------------------------------------|-0-------|-0----0----------0----0----------|


D|---------|---------------|---------|---------------------------------|---------|---------------|
A|---------|---------------|---------|---------------------------------|---------|---------------|
F|-5-------|-10-----9------|-7-------|-----------%---------------%-----|-5-------|-10-----9------|
C|-5-------|-7------7------|-7-------|-----------%---------------%-----|-5-------|-7------7------|
G|-3-------|---------------|-5-------|-0----0----------0----0----------|-3-------|---------------|
C|---------|---------------|-0-------|-0----0----------0----0----------|---------|---------------|


D|-----------------------------------------------------------------|-----------------------------------------------------------------|
A|-----------------------------------------------------------------|-----------------------------------------------------------------|
F|-7---7---7---7---7---7---7---7---7---7---7---7---7---7---7---7---|-7---7---7---7---7---7---7---7---7---7---7---7---7---7---7---7---|
C|-7---7---7---7---7---7---7---7---7---7---7---7---7---7---7---7---|-7---7---7---7---7---7---7---7---7---7---7---7---7---7---7---7---|
G|-5---5---5---5---5---5---5---5---5---5---5---5---5---5---5---5---|-5---5---5---5---5---5---5---5---5---5---5---5---5---5---5---5---|
C|-0---0---0---0---0---0---0---0---0---0---0---0---0---0---0---0---|-0---0---0---0---0---0---0---0---0---0---0---0---0---0---0---0---|


D|-----------------------------------------------------------------|-----------------------------------------------------------------|
A|-----------------------------------------------------------------|-----------------------------------------------------------------|
F|-5---5---5---5---5---5---5---5---5---5---5---5---5---5---5---5---|-10--10--10--10--10--10--10--10--9---9---9---9---9---9---9---9---|
C|-5---5---5---5---5---5---5---5---5---5---5---5---5---5---5---5---|-7---7---7---7---7---7---7---7---7---7---7---7---7---7---7---7---|
G|-3---3---3---3---3---3---3---3---3---3---3---3---3---3---3---3---|-----------------------------------------------------------------|
C|-----------------------------------------------------------------|-----------------------------------------------------------------|


D|-----------------------------------------------------------------|-----------------------------------------------------------------|
A|-----------------------------------------------------------------|-----------------------------------------------------------------|
F|-7---7---7---7---7---7---7---7---7---7---7---7---7---7---7---7---|-7---7---7---7---7---7---7---7---7---7---7---7---7---7---7---7---|
C|-7---7---7---7---7---7---7---7---7---7---7---7---7---7---7---7---|-7---7---7---7---7---7---7---7---7---7---7---7---7---7---7---7---|
G|-5---5---5---5---5---5---5---5---5---5---5---5---5---5---5---5---|-5---5---5---5---5---5---5---5---5---5---5---5---5---5---5---5---|
C|-0---0---0---0---0---0---0---0---0---0---0---0---0---0---0---0---|-0---0---0---0---0---0---0---0---0---0---0---0---0---0---0---0---|


D|-----------------------------------------------------------------|-----------------------------------------------------------------|
A|-----------------------------------------------------------------|-----------------------------------------------------------------|
F|-5---5---5---5---5---5---5---5---5---5---5---5---5---5---5---5---|-10--10--10--10--10--10--10--10--9---9---9---9---9---9---9---9---|
C|-5---5---5---5---5---5---5---5---5---5---5---5---5---5---5---5---|-7---7---7---7---7---7---7---7---7---7---7---7---7---7---7---7---|
G|-3---3---3---3---3---3---3---3---3---3---3---3---3---3---3---3---|-----------------------------------------------------------------|
C|-----------------------------------------------------------------|-----------------------------------------------------------------|


D|-----------------------------------------------------------------|-----------------------------------------------------------------|
A|-----------------------------------------------------------------|-----------------------------------------------------------------|
F|-7---7---7---7---7---7---7---7---7---7---7---7---7---7---7---7---|-7---7---7---7---7---7---7---7---7---7---7---7---7---7---7---7---|
C|-7---7---7---7---7---7---7---7---7---7---7---7---7---7---7---7---|-7---7---7---7---7---7---7---7---7---7---7---7---7---7---7---7---|
G|-5---5---5---5---5---5---5---5---5---5---5---5---5---5---5---5---|-5---5---5---5---5---5---5---5---5---5---5---5---5---5---5---5---|
C|-0---0---0---0---0---0---0---0---0---0---0---0---0---0---0---0---|-0---0---0---0---0---0---0---0---0---0---0---0---0---0---0---0---|


D|-----------------------------------------------------------------|-----------------------------------------------------------------|
A|-----------------------------------------------------------------|-----------------------------------------------------------------|
F|-5---5---5---5---5---5---5---5---5---5---5---5---5---5---5---5---|-10--10--10--10--10--10--10--10--9---9---9---9---9---9---9---9---|
C|-5---5---5---5---5---5---5---5---5---5---5---5---5---5---5---5---|-7---7---7---7---7---7---7---7---7---7---7---7---7---7---7---7---|
G|-3---3---3---3---3---3---3---3---3---3---3---3---3---3---3---3---|-----------------------------------------------------------------|
C|-----------------------------------------------------------------|-----------------------------------------------------------------|


D|-----------------------------------------------------------------|-----------------------------------------------------------------|
A|-----------------------------------------------------------------|-----------------------------------------------------------------|
F|-7---7---7---7---7---7---7---7---7---7---7---7---7---7---7---7---|-7---7---7---7---7---7---7---7---7---7---7---7---7---7---7---7---|
C|-7---7---7---7---7---7---7---7---7---7---7---7---7---7---7---7---|-7---7---7---7---7---7---7---7---7---7---7---7---7---7---7---7---|
G|-5---5---5---5---5---5---5---5---5---5---5---5---5---5---5---5---|-5---5---5---5---5---5---5---5---5---5---5---5---5---5---5---5---|
C|-0---0---0---0---0---0---0---0---0---0---0---0---0---0---0---0---|-0---0---0---0---0---0---0---0---0---0---0---0---0---0---0---0---|


D|-----------------------------------------------------------------|-----------------------------------------------------------------|
A|-----------------------------------------------------------------|-----------------------------------------------------------------|
F|-5---5---5---5---5---5---5---5---5---5---5---5---5---5---5---5---|-10--10--10--10--10--10--10--10--9---9---9---9---9---9---9---9---|
C|-5---5---5---5---5---5---5---5---5---5---5---5---5---5---5---5---|-7---7---7---7---7---7---7---7---7---7---7---7---7---7---7---7---|
G|-3---3---3---3---3---3---3---3---3---3---3---3---3---3---3---3---|-----------------------------------------------------------------|
C|-----------------------------------------------------------------|-----------------------------------------------------------------|


D|-----------------------------------------------------------------|-----------------------------------------------------------------|
A|-----------------------------------------------------------------|-----------------------------------------------------------------|
F|-7---7---7---7---7---7---7---7---7---7---7---7---7---7---7---7---|-7---7---7---7---7---7---7---7---7---7---7---7---7---7---7---7---|
C|-7---7---7---7---7---7---7---7---7---7---7---7---7---7---7---7---|-7---7---7---7---7---7---7---7---7---7---7---7---7---7---7---7---|
G|-5---5---5---5---5---5---5---5---5---5---5---5---5---5---5---5---|-5---5---5---5---5---5---5---5---5---5---5---5---5---5---5---5---|
C|-0---0---0---0---0---0---0---0---0---0---0---0---0---0---0---0---|-0---0---0---0---0---0---0---0---0---0---0---0---0---0---0---0---|


D|-----------------------------------------------------------------|-----------------------------------------------------------------|
A|-----------------------------------------------------------------|-----------------------------------------------------------------|
F|-5---5---5---5---5---5---5---5---5---5---5---5---5---5---5---5---|-10--10--10--10--10--10--10--10--9---9---9---9---9---9---9---9---|
C|-5---5---5---5---5---5---5---5---5---5---5---5---5---5---5---5---|-7---7---7---7---7---7---7---7---7---7---7---7---7---7---7---7---|
G|-3---3---3---3---3---3---3---3---3---3---3---3---3---3---3---3---|-----------------------------------------------------------------|
C|-----------------------------------------------------------------|-----------------------------------------------------------------|


D|-----------------------------------------------------------------|-----------------------------------------------------------------|
A|-----------------------------------------------------------------|-----------------------------------------------------------------|
F|-7---7---7---7---7---7---7---7---7---7---7---7---7---7---7---7---|-7---7---7---7---7---7---7---7---7---7---7---7---7---7---7---7---|
C|-7---7---7---7---7---7---7---7---7---7---7---7---7---7---7---7---|-7---7---7---7---7---7---7---7---7---7---7---7---7---7---7---7---|
G|-5---5---5---5---5---5---5---5---5---5---5---5---5---5---5---5---|-5---5---5---5---5---5---5---5---5---5---5---5---5---5---5---5---|
C|-0---0---0---0---0---0---0---0---0---0---0---0---0---0---0---0---|-0---0---0---0---0---0---0---0---0---0---0---0---0---0---0---0---|


D|-----------------------------------------------------------------|-----------------------------------------------------------------|
A|-----------------------------------------------------------------|-----------------------------------------------------------------|
F|-5---5---5---5---5---5---5---5---5---5---5---5---5---5---5---5---|-10--10--10--10--10--10--10--10--9---9---9---9---9---9---9---9---|
C|-5---5---5---5---5---5---5---5---5---5---5---5---5---5---5---5---|-7---7---7---7---7---7---7---7---7---7---7---7---7---7---7---7---|
G|-3---3---3---3---3---3---3---3---3---3---3---3---3---3---3---3---|-----------------------------------------------------------------|
C|-----------------------------------------------------------------|-----------------------------------------------------------------|


D|-----------------------------------------------------------------|-----------------------------------------------------------------|
A|-----------------------------------------------------------------|-----------------------------------------------------------------|
F|-7---7---7---7---7---7---7---7---7---7---7---7---7---7---7---7---|-7---7---7---7---7---7---7---7---7---7---7---7---7---7---7---7---|
C|-7---7---7---7---7---7---7---7---7---7---7---7---7---7---7---7---|-7---7---7---7---7---7---7---7---7---7---7---7---7---7---7---7---|
G|-5---5---5---5---5---5---5---5---5---5---5---5---5---5---5---5---|-5---5---5---5---5---5---5---5---5---5---5---5---5---5---5---5---|
C|-0---0---0---0---0---0---0---0---0---0---0---0---0---0---0---0---|-0---0---0---0---0---0---0---0---0---0---0---0---0---0---0---0---|


D|-----------------------------------------------------------------|-----------------------------------------------------------------|
A|-----------------------------------------------------------------|-----------------------------------------------------------------|
F|-5---5---5---5---5---5---5---5---5---5---5---5---5---5---5---5---|-10--10--10--10--10--10--10--10--9---9---9---9---9---9---9---9---|
C|-5---5---5---5---5---5---5---5---5---5---5---5---5---5---5---5---|-7---7---7---7---7---7---7---7---7---7---7---7---7---7---7---7---|
G|-3---3---3---3---3---3---3---3---3---3---3---3---3---3---3---3---|-----------------------------------------------------------------|
C|-----------------------------------------------------------------|-----------------------------------------------------------------|


D|-----------------------------------------------------------------|-----------------------------------------------------------------|
A|-----------------------------------------------------------------|-----------------------------------------------------------------|
F|-7---7---7---7---7---7---7---7---7---7---7---7---7---7---7---7---|-7---7---7---7---7---7---7---7---7---7---7---7---7---7---7---7---|
C|-7---7---7---7---7---7---7---7---7---7---7---7---7---7---7---7---|-7---7---7---7---7---7---7---7---7---7---7---7---7---7---7---7---|
G|-5---5---5---5---5---5---5---5---5---5---5---5---5---5---5---5---|-5---5---5---5---5---5---5---5---5---5---5---5---5---5---5---5---|
C|-0---0---0---0---0---0---0---0---0---0---0---0---0---0---0---0---|-0---0---0---0---0---0---0---0---0---0---0---0---0---0---0---0---|


D|-----------------------------------------------------------------|-----------------------------------------------------------------|
A|-----------------------------------------------------------------|-----------------------------------------------------------------|
F|-5---5---5---5---5---5---5---5---5---5---5---5---5---5---5---5---|-10--10--10--10--10--10--10--10--9---9---9---9---9---9---9---9---|
C|-5---5---5---5---5---5---5---5---5---5---5---5---5---5---5---5---|-7---7---7---7---7---7---7---7---7---7---7---7---7---7---7---7---|
G|-3---3---3---3---3---3---3---3---3---3---3---3---3---3---3---3---|-----------------------------------------------------------------|
C|-----------------------------------------------------------------|-----------------------------------------------------------------|


D|---------|---------------------------------|---------------------------------|-----------------------------------------|
A|---------|---------------------------------|---------------------------------|-----------------------------------------|
F|-7-------|-----------%---------------%-----|-----------%---------------%-----|-----------------------------------------|
C|-7-------|-----------%---------------%-----|-----------%---------------%-----|-----------------------------------------|
G|-5-------|-0----0----------0----0----------|-0----0----------0----0----------|---------------------2--------------2----|
C|-0-------|-0----0----------0----0----------|-0----0----------0----0----------|-1----2----1----0----2----1----0----2----|


D|-----------------------------------------|------|-----------------------------------------|
A|-----------------------------------------|------|-----------------------------------------|
F|-----------------------------------------|------|-----------------------------------------|
C|---------------------3----3----3---------|------|-----------------------------------------|
G|---------------------3----3----3---------|------|-----------------------------------------|
C|-1----0----1----1-------------------0----|-0----|-1----2----2----1----2----1----0----2----|


D|-----------------------------------------|-----------------------------------------|
A|-----------------------------------------|-----------------------------------------|
F|-----------------------------------------|-----------------------------------------|
C|-----------------------------------------|-----------------------------------------|
G|---------------------3----3----3---------|-----------------------------------------|
C|-1----0----1----1-------------------0----|-1----2----2----1----2----1----0----2----|


D|-----------------------------------------|-----------------------------------------|
A|-----------------------------------------|-----------------------------------------|
F|-----------------------------------------|-----------------------------------------|
C|-----------------------------------------|-----------------------------------------|
G|---------------------3----3----3---------|-----------------------------------------|
C|-1----0----1----1-------------------0----|-1----2----2----1----2----1----0----2----|


D|-----------------------------------------|-----------------------------------------|
A|-----------------------------------------|-----------------------------------------|
F|-----------------------------------------|-----------------------------------------|
C|-----------------------------------------|-----------------------------------------|
G|---------------------3----3----3---------|-----------------------------------------|
C|-1----0----1----1-------------------0----|-1----2----2----1----2----1----0----2----|


D|-----------------------------------------|-----------------------------------------|
A|-----------------------------------------|-----------------------------------------|
F|-----------------------------------------|-----------------------------------------|
C|-----------------------------------------|-----------------------------------------|
G|---------------------3----3----3---------|---------------------2--------------2----|
C|-1----0----1----1-------------------0----|-1----2----2----1----2----1----0----2----|


D|-----------------------------------------|-----------------------------------------|
A|-----------------------------------------|-----------------------------------------|
F|-----------------------------------------|-----------------------------------------|
C|---------------------3----3----3---------|-----------------------------------------|
G|---------------------3----3----3---------|---------------------2--------------2----|
C|-1----0----1----2-------------------0----|-1----2----2----1----2----1----0----2----|


D|-----------------------------------------|-----------------------------------------|
A|-----------------------------------------|-----------------------------------------|
F|-----------------------------------------|-----------------------------------------|
C|---------------------3----3----3---------|-----------------------------------------|
G|---------------------3----3----3---------|---------------------2--------------2----|
C|-1----0----1----2-------------------0----|-1----2----2----1----2----1----0----2----|


D|-----------------------------------------|-----------------------------------------|
A|-----------------------------------------|-----------------------------------------|
F|-----------------------------------------|-----------------------------------------|
C|---------------------3----3----3---------|-----------------------------------------|
G|---------------------3----3----3---------|-----------------------------------------|
C|-1----0----1----2-------------------0----|-1----2----2----1----2----1----0----2----|


D|-----------------------------------------|-------------------------------|-----------------------------------------|
A|-----------------------------------------|-------------------------------|-----------------------------------------|
F|-----------------------------------------|-------------------------------|-----------------------------------------|
C|-----------------------------------------|-------------------------------|-----------------------------------------|
G|-----------------------------------------|-----------3----3----3---------|-----------------------------------------|
C|-1----0----2----1----0----2----1----0----|-1----1-------------------0----|-1----2----2----1----2----1----0----2----|


D|-----------------------------------------|-----------------------------------------|
A|-----------------------------------------|-----------------------------------------|
F|-----------------------------------------|-----------------------------------------|
C|-----------------------------------------|-----------------------------------------|
G|---------------------3----3----3---------|-----------------------------------------|
C|-1----0----1----2-------------------0----|-1----2----2----1----2----1----0----2----|


D|-----------------------------------------|-----------------------------------------|
A|-----------------------------------------|-----------------------------------------|
F|-----------------------------------------|-----------------------------------------|
C|-----------------------------------------|-----------------------------------------|
G|---------------------3----3----3---------|-----------------------------------------|
C|-1----0----1----2-------------------0----|-1----2----2----1----2----1----0----2----|


D|-----------------------------------------|-----------------------------------------|
A|-----------------------------------------|-----------------------------------------|
F|-----------------------------------------|-----------------------------------------|
C|-----------------------------------------|-----------------------------------------|
G|---------------------3----3----3---------|-----------------------------------------|
C|-1----0----1----2-------------------0----|-1----2----2----1----2----1----0----2----|


D|-----------------------------------------|-------------------------------|-----------------------------------------|
A|-----------------------------------------|-------------------------------|-----------------------------------------|
F|-----------------------------------------|-------------------------------|-----------------------------------------|
C|-----------------------------------------|-------------------------------|-----------------------------------------|
G|-----------------------------------------|-----------3----3----3---------|---------------------2--------------2----|
C|-1----0----2----1----0----2----1----0----|-1----1-------------------0----|-1----2----2----1----2----1----0----2----|


D|-----------------------------------------|-----------------------------------------|
A|-----------------------------------------|-----------------------------------------|
F|-----------------------------------------|-----------------------------------------|
C|---------------------3----3----3---------|-----------------------------------------|
G|---------------------3----3----3---------|---------------------2--------------2----|
C|-1----0----1----2-------------------0----|-1----2----2----1----2----1----0----2----|


D|-----------------------------------------|-----------------------------------------|
A|-----------------------------------------|-----------------------------------------|
F|-----------------------------------------|-----------------------------------------|
C|---------------------3----3----3---------|-----------------------------------------|
G|---------------------3----3----3---------|---------------------2--------------2----|
C|-1----0----1----2-------------------0----|-1----2----2----1----2----1----0----2----|


D|-----------------------------------------|-----------------------------------------|
A|-----------------------------------------|-----------------------------------------|
F|-----------------------------------------|-----------------------------------------|
C|---------------------3----3----3---------|-----------------------------------------|
G|---------------------3----3----3---------|---------------------2--------------2----|
C|-1----0----1----2-------------------0----|-1----2----2----1----2----1----0----2----|


D|-----------------------------------------|-----------------------------------------|
A|-----------------------------------------|-----------------------------------------|
F|-----------------------------------------|-----------------------------------------|
C|---------------------3----3----3---------|-----------------------------------------|
G|---------------------3----3----3---------|---------------------2--------------2----|
C|-1----0----1----2-------------------0----|-1----2----2----1----2----1----0----2----|


D|-----------------------------------------|-----------------------------------------|
A|-----------------------------------------|-----------------------------------------|
F|-----------------------------------------|-----------------------------------------|
C|---------------------3----3----3---------|-----------------------------------------|
G|---------------------3----3----3---------|---------------------2--------------2----|
C|-1----0----1----2-------------------0----|-1----2----2----1----2----1----0----2----|


D|-----------------------------------------|-----------------------------------------|
A|-----------------------------------------|-----------------------------------------|
F|-----------------------------------------|-----------------------------------------|
C|---------------------3----3----3---------|-----------------------------------------|
G|---------------------3----3----3---------|---------------------2--------------2----|
C|-1----0----1----2-------------------0----|-1----2----2----1----2----1----0----2----|


D|-----------------------------------------|-----------------------------------------|
A|-----------------------------------------|-----------------------------------------|
F|-----------------------------------------|-----------------------------------------|
C|---------------------3----3----3---------|-----------------------------------------|
G|---------------------3----3----3---------|---------------------2--------------2----|
C|-1----0----1----2-------------------0----|-1----2----2----1----2----1----0----2----|


D|-----------------------------------------|-----------------------------------------|
A|-----------------------------------------|-----------------------------------------|
F|-----------------------------------------|-----------------------------------------|
C|---------------------3----3----3---------|-----------------------------------------|
G|---------------------3----3----3---------|---------------------2--------------2----|
C|-1----0----1----2-------------------0----|-1----2----2----1----2----1----0----2----|


D|-----------------------------------------|-----------------------------------------|
A|-----------------------------------------|-----------------------------------------|
F|-----------------------------------------|-----------------------------------------|
C|---------------------3----3----3---------|-----------------------------------------|
G|---------------------3----3----3---------|---------------------2--------------2----|
C|-1----0----1----2-------------------0----|-1----2----2----1----2----1----0----2----|


D|-----------------------------------------|-----------------------------------------|
A|-----------------------------------------|-----------------------------------------|
F|-----------------------------------------|-----------------------------------------|
C|---------------------3----3----3---------|-----------------------------------------|
G|---------------------3----3----3---------|---------------------2--------------2----|
C|-1----0----1----2-------------------0----|-1----2----2----1----2----1----0----2----|


D|-----------------------------------------|-----------------------------------------|
A|-----------------------------------------|-----------------------------------------|
F|-----------------------------------------|-----------------------------------------|
C|---------------------3----3----3---------|-----------------------------------------|
G|---------------------3----3----3---------|---------------------2--------------2----|
C|-1----0----1----2-------------------0----|-1----2----2----1----2----1----0----2----|


D|-----------------------------------------|-----------------------------------------|
A|-----------------------------------------|-----------------------------------------|
F|-----------------------------------------|-----------------------------------------|
C|---------------------3----3----3---------|-----------------------------------------|
G|---------------------3----3----3---------|---------------------2--------------2----|
C|-1----0----1----2-------------------0----|-1----2----2----1----2----1----0----2----|


D|-----------------------------------------|-----------------------------------------|
A|-----------------------------------------|-----------------------------------------|
F|-----------------------------------------|-----------------------------------------|
C|---------------------3----3----3---------|-----------------------------------------|
G|---------------------3----3----3---------|---------------------2--------------2----|
C|-1----0----1----2-------------------0----|-1----2----2----1----2----1----0----2----|


D|-----------------------------------------|-----------------------------------------|
A|-----------------------------------------|-----------------------------------------|
F|-----------------------------------------|-----------------------------------------|
C|---------------------3----3----3---------|-----------------------------------------|
G|---------------------3----3----3---------|---------------------2--------------2----|
C|-1----0----1----2-------------------0----|-1----2----2----1----2----1----0----2----|


D|-----------------------------------------|-----------------------------------------|
A|-----------------------------------------|-----------------------------------------|
F|-----------------------------------------|-----------------------------------------|
C|---------------------3----3----3---------|-----------------------------------------|
G|---------------------3----3----3---------|---------------------2--------------2----|
C|-1----0----1----2-------------------0----|-1----2----2----1----2----1----0----2----|


D|-----------------------------------------|-----------------------------------------|
A|-----------------------------------------|-----------------------------------------|
F|-----------------------------------------|-----------------------------------------|
C|---------------------3----3----3---------|-----------------------------------------|
G|---------------------3----3----3---------|---------------------2--------------2----|
C|-1----0----1----2-------------------0----|-1----2----2----1----2----1----0----2----|


D|-----------------------------------------|-----------------------------------------|
A|-----------------------------------------|-----------------------------------------|
F|-----------------------------------------|-----------------------------------------|
C|---------------------3----3----3---------|-----------------------------------------|
G|---------------------3----3----3---------|---------------------2--------------2----|
C|-1----0----1----2-------------------0----|-1----2----2----1----2----1----0----2----|


D|-----------------------------------------|-----------------------------------------|
A|-----------------------------------------|-----------------------------------------|
F|-----------------------------------------|-----------------------------------------|
C|---------------------3----3----3---------|-----------------------------------------|
G|---------------------3----3----3---------|---------------------2--------------2----|
C|-1----0----1----2-------------------0----|-1----2----2----1----2----1----0----2----|


D|-----------------------------------------|-----------------------------------------|
A|-----------------------------------------|-----------------------------------------|
F|-----------------------------------------|-----------------------------------------|
C|---------------------3----3----3---------|-----------------------------------------|
G|---------------------3----3----3---------|---------------------2--------------2----|
C|-1----0----1----2-------------------0----|-1----2----2----1----2----1----0----2----|


D|-----------------------------------------|-----------------------------------------|
A|-----------------------------------------|-----------------------------------------|
F|-----------------------------------------|-----------------------------------------|
C|---------------------3----3----3---------|-----------------------------------------|
G|---------------------3----3----3---------|---------------------2--------------2----|
C|-1----0----1----2-------------------0----|-1----2----2----1----2----1----0----2----|


D|-----------------------------------------|-----------------------------------------|
A|-----------------------------------------|-----------------------------------------|
F|-----------------------------------------|-----------------------------------------|
C|---------------------3----3----3---------|-----------------------------------------|
G|---------------------3----3----3---------|---------------------2--------------2----|
C|-1----0----1----2-------------------0----|-1----2----2----1----2----1----0----2----|


D|-----------------------------------------|-----------------------------------------|
A|-----------------------------------------|-----------------------------------------|
F|-----------------------------------------|-----------------------------------------|
C|---------------------3----3----3---------|-----------------------------------------|
G|---------------------3----3----3---------|---------------------2--------------2----|
C|-1----0----1----2-------------------0----|-1----2----2----1----2----1----0----2----|


D|-----------------------------------------|-----------------------------------------|
A|-----------------------------------------|-----------------------------------------|
F|-----------------------------------------|-----------------------------------------|
C|---------------------3----3----3---------|-----------------------------------------|
G|---------------------3----3----3---------|---------------------2--------------2----|
C|-1----0----1----2-------------------0----|-1----2----2----1----2----1----0----2----|


D|-----------------------------------------|-----------------------------------------|
A|-----------------------------------------|-----------------------------------------|
F|-----------------------------------------|-----------------------------------------|
C|---------------------3----3----3---------|-----------------------------------------|
G|---------------------3----3----3---------|---------------------2--------------2----|
C|-1----0----1----2-------------------0----|-1----2----2----1----2----1----0----2----|


D|-----------------------------------------|-----------------------------------------|
A|-----------------------------------------|-----------------------------------------|
F|-----------------------------------------|-----------------------------------------|
C|---------------------3----3----3---------|-----------------------------------------|
G|---------------------3----3----3---------|---------------------2--------------2----|
C|-1----0----1----2-------------------0----|-1----2----2----1----2----1----0----2----|


D|-----------------------------------------|-------------------------------------------------------------|
A|-----------------------------------------|-------------------------------------------------------------|
F|-----------------------------------------|-------------------------------------------------------------|
C|---------------------3----3----3---------|-------------------------------------------------------------|
G|---------------------3----3----3---------|-------------------------------------------------------------|
C|-1----0----1----2-------------------0----|-2----1----0----2----1----0----2----1----0----2----1----0----|


D|-----------------------------------------------------------------|-----------------------------------------------------------------|
A|-----------------------------------------------------------------|-----------------------------------------------------------------|
F|-7---7---7---7---7---7---7---7---7---7---7---7---7---7---7---7---|-7---7---7---7---7---7---7---7---7---7---7---7---7---7---7---7---|
C|-7---7---7---7---7---7---7---7---7---7---7---7---7---7---7---7---|-7---7---7---7---7---7---7---7---7---7---7---7---7---7---7---7---|
G|-5---5---5---5---5---5---5---5---5---5---5---5---5---5---5---5---|-5---5---5---5---5---5---5---5---5---5---5---5---5---5---5---5---|
C|-0---0---0---0---0---0---0---0---0---0---0---0---0---0---0---0---|-0---0---0---0---0---0---0---0---0---0---0---0---0---0---0---0---|


D|-----------------------------------------------------------------|-----------------------------------------------------------------|
A|-----------------------------------------------------------------|-----------------------------------------------------------------|
F|-5---5---5---5---5---5---5---5---5---5---5---5---5---5---5---5---|-10--10--10--10--10--10--10--10--9---9---9---9---9---9---9---9---|
C|-5---5---5---5---5---5---5---5---5---5---5---5---5---5---5---5---|-7---7---7---7---7---7---7---7---7---7---7---7---7---7---7---7---|
G|-3---3---3---3---3---3---3---3---3---3---3---3---3---3---3---3---|-----------------------------------------------------------------|
C|-----------------------------------------------------------------|-----------------------------------------------------------------|


D|-----------------------------------------------------------------|-----------------------------------------------------------------|
A|-----------------------------------------------------------------|-----------------------------------------------------------------|
F|-7---7---7---7---7---7---7---7---7---7---7---7---7---7---7---7---|-7---7---7---7---7---7---7---7---7---7---7---7---7---7---7---7---|
C|-7---7---7---7---7---7---7---7---7---7---7---7---7---7---7---7---|-7---7---7---7---7---7---7---7---7---7---7---7---7---7---7---7---|
G|-5---5---5---5---5---5---5---5---5---5---5---5---5---5---5---5---|-5---5---5---5---5---5---5---5---5---5---5---5---5---5---5---5---|
C|-0---0---0---0---0---0---0---0---0---0---0---0---0---0---0---0---|-0---0---0---0---0---0---0---0---0---0---0---0---0---0---0---0---|


D|-----------------------------------------------------------------|-----------------------------------------------------------------|
A|-----------------------------------------------------------------|-----------------------------------------------------------------|
F|-5---5---5---5---5---5---5---5---5---5---5---5---5---5---5---5---|-10--10--10--10--10--10--10--10--9---9---9---9---9---9---9---9---|
C|-5---5---5---5---5---5---5---5---5---5---5---5---5---5---5---5---|-7---7---7---7---7---7---7---7---7---7---7---7---7---7---7---7---|
G|-3---3---3---3---3---3---3---3---3---3---3---3---3---3---3---3---|-----------------------------------------------------------------|
C|-----------------------------------------------------------------|-----------------------------------------------------------------|


D|-----------------------------------------------------------------|-----------------------------------------------------------------|
A|-----------------------------------------------------------------|-----------------------------------------------------------------|
F|-7---7---7---7---7---7---7---7---7---7---7---7---7---7---7---7---|-7---7---7---7---7---7---7---7---7---7---7---7---7---7---7---7---|
C|-7---7---7---7---7---7---7---7---7---7---7---7---7---7---7---7---|-7---7---7---7---7---7---7---7---7---7---7---7---7---7---7---7---|
G|-5---5---5---5---5---5---5---5---5---5---5---5---5---5---5---5---|-5---5---5---5---5---5---5---5---5---5---5---5---5---5---5---5---|
C|-0---0---0---0---0---0---0---0---0---0---0---0---0---0---0---0---|-0---0---0---0---0---0---0---0---0---0---0---0---0---0---0---0---|


D|-----------------------------------------------------------------|-----------------------------------------------------------------|
A|-----------------------------------------------------------------|-----------------------------------------------------------------|
F|-5---5---5---5---5---5---5---5---5---5---5---5---5---5---5---5---|-10--10--10--10--10--10--10--10--9---9---9---9---9---9---9---9---|
C|-5---5---5---5---5---5---5---5---5---5---5---5---5---5---5---5---|-7---7---7---7---7---7---7---7---7---7---7---7---7---7---7---7---|
G|-3---3---3---3---3---3---3---3---3---3---3---3---3---3---3---3---|-----------------------------------------------------------------|
C|-----------------------------------------------------------------|-----------------------------------------------------------------|


D|-----------------------------------------------------------------|-----------------------------------------------------------------|
A|-----------------------------------------------------------------|-----------------------------------------------------------------|
F|-7---7---7---7---7---7---7---7---7---7---7---7---7---7---7---7---|-7---7---7---7---7---7---7---7---7---7---7---7---7---7---7---7---|
C|-7---7---7---7---7---7---7---7---7---7---7---7---7---7---7---7---|-7---7---7---7---7---7---7---7---7---7---7---7---7---7---7---7---|
G|-5---5---5---5---5---5---5---5---5---5---5---5---5---5---5---5---|-5---5---5---5---5---5---5---5---5---5---5---5---5---5---5---5---|
C|-0---0---0---0---0---0---0---0---0---0---0---0---0---0---0---0---|-0---0---0---0---0---0---0---0---0---0---0---0---0---0---0---0---|


D|-----------------------------------------------------------------|-----------------------------------------------------------------|
A|-----------------------------------------------------------------|-----------------------------------------------------------------|
F|-5---5---5---5---5---5---5---5---5---5---5---5---5---5---5---5---|-10--10--10--10--10--10--10--10--9---9---9---9---9---9---9---9---|
C|-5---5---5---5---5---5---5---5---5---5---5---5---5---5---5---5---|-7---7---7---7---7---7---7---7---7---7---7---7---7---7---7---7---|
G|-3---3---3---3---3---3---3---3---3---3---3---3---3---3---3---3---|-----------------------------------------------------------------|
C|-----------------------------------------------------------------|-----------------------------------------------------------------|


D|-----------------------------------------------------------------|-----------------------------------------------------------------|
A|-----------------------------------------------------------------|-----------------------------------------------------------------|
F|-7---7---7---7---7---7---7---7---7---7---7---7---7---7---7---7---|-7---7---7---7---7---7---7---7---7---7---7---7---7---7---7---7---|
C|-7---7---7---7---7---7---7---7---7---7---7---7---7---7---7---7---|-7---7---7---7---7---7---7---7---7---7---7---7---7---7---7---7---|
G|-5---5---5---5---5---5---5---5---5---5---5---5---5---5---5---5---|-5---5---5---5---5---5---5---5---5---5---5---5---5---5---5---5---|
C|-0---0---0---0---0---0---0---0---0---0---0---0---0---0---0---0---|-0---0---0---0---0---0---0---0---0---0---0---0---0---0---0---0---|


D|-----------------------------------------------------------------|-----------------------------------------------------------------|
A|-----------------------------------------------------------------|-----------------------------------------------------------------|
F|-5---5---5---5---5---5---5---5---5---5---5---5---5---5---5---5---|-10--10--10--10--10--10--10--10--9---9---9---9---9---9---9---9---|
C|-5---5---5---5---5---5---5---5---5---5---5---5---5---5---5---5---|-7---7---7---7---7---7---7---7---7---7---7---7---7---7---7---7---|
G|-3---3---3---3---3---3---3---3---3---3---3---3---3---3---3---3---|-----------------------------------------------------------------|
C|-----------------------------------------------------------------|-----------------------------------------------------------------|


D|-----------------------------------------------------------------|-----------------------------------------------------------------|
A|-----------------------------------------------------------------|-----------------------------------------------------------------|
F|-7---7---7---7---7---7---7---7---7---7---7---7---7---7---7---7---|-7---7---7---7---7---7---7---7---7---7---7---7---7---7---7---7---|
C|-7---7---7---7---7---7---7---7---7---7---7---7---7---7---7---7---|-7---7---7---7---7---7---7---7---7---7---7---7---7---7---7---7---|
G|-5---5---5---5---5---5---5---5---5---5---5---5---5---5---5---5---|-5---5---5---5---5---5---5---5---5---5---5---5---5---5---5---5---|
C|-0---0---0---0---0---0---0---0---0---0---0---0---0---0---0---0---|-0---0---0---0---0---0---0---0---0---0---0---0---0---0---0---0---|


D|-----------------------------------------------------------------|-----------------------------------------------------------------|
A|-----------------------------------------------------------------|-----------------------------------------------------------------|
F|-5---5---5---5---5---5---5---5---5---5---5---5---5---5---5---5---|-10--10--10--10--10--10--10--10--9---9---9---9---9---9---9---9---|
C|-5---5---5---5---5---5---5---5---5---5---5---5---5---5---5---5---|-7---7---7---7---7---7---7---7---7---7---7---7---7---7---7---7---|
G|-3---3---3---3---3---3---3---3---3---3---3---3---3---3---3---3---|-----------------------------------------------------------------|
C|-----------------------------------------------------------------|-----------------------------------------------------------------|


D|-----------------------------------------------------------------|-----------------------------------------------------------------|
A|-----------------------------------------------------------------|-----------------------------------------------------------------|
F|-7---7---7---7---7---7---7---7---7---7---7---7---7---7---7---7---|-7---7---7---7---7---7---7---7---7---7---7---7---7---7---7---7---|
C|-7---7---7---7---7---7---7---7---7---7---7---7---7---7---7---7---|-7---7---7---7---7---7---7---7---7---7---7---7---7---7---7---7---|
G|-5---5---5---5---5---5---5---5---5---5---5---5---5---5---5---5---|-5---5---5---5---5---5---5---5---5---5---5---5---5---5---5---5---|
C|-0---0---0---0---0---0---0---0---0---0---0---0---0---0---0---0---|-0---0---0---0---0---0---0---0---0---0---0---0---0---0---0---0---|


D|-----------------------------------------------------------------|-----------------------------------------------------------------|
A|-----------------------------------------------------------------|-----------------------------------------------------------------|
F|-5---5---5---5---5---5---5---5---5---5---5---5---5---5---5---5---|-10--10--10--10--10--10--10--10--9---9---9---9---9---9---9---9---|
C|-5---5---5---5---5---5---5---5---5---5---5---5---5---5---5---5---|-7---7---7---7---7---7---7---7---7---7---7---7---7---7---7---7---|
G|-3---3---3---3---3---3---3---3---3---3---3---3---3---3---3---3---|-----------------------------------------------------------------|
C|-----------------------------------------------------------------|-----------------------------------------------------------------|


D|-----------------------------------------------------------------|-----------------------------------------------------------------|
A|-----------------------------------------------------------------|-----------------------------------------------------------------|
F|-7---7---7---7---7---7---7---7---7---7---7---7---7---7---7---7---|-7---7---7---7---7---7---7---7---7---7---7---7---7---7---7---7---|
C|-7---7---7---7---7---7---7---7---7---7---7---7---7---7---7---7---|-7---7---7---7---7---7---7---7---7---7---7---7---7---7---7---7---|
G|-5---5---5---5---5---5---5---5---5---5---5---5---5---5---5---5---|-5---5---5---5---5---5---5---5---5---5---5---5---5---5---5---5---|
C|-0---0---0---0---0---0---0---0---0---0---0---0---0---0---0---0---|-0---0---0---0---0---0---0---0---0---0---0---0---0---0---0---0---|


D|-----------------------------------------------------------------|-----------------------------------------------------------------|
A|-----------------------------------------------------------------|-----------------------------------------------------------------|
F|-5---5---5---5---5---5---5---5---5---5---5---5---5---5---5---5---|-10--10--10--10--10--10--10--10--9---9---9---9---9---9---9---9---|
C|-5---5---5---5---5---5---5---5---5---5---5---5---5---5---5---5---|-7---7---7---7---7---7---7---7---7---7---7---7---7---7---7---7---|
G|-3---3---3---3---3---3---3---3---3---3---3---3---3---3---3---3---|-----------------------------------------------------------------|
C|-----------------------------------------------------------------|-----------------------------------------------------------------|


D|---------|---------------------------------|---------------------------------|-----------------------------------------|
A|---------|---------------------------------|---------------------------------|-----------------------------------------|
F|-7-------|-----------%---------------%-----|-----------%---------------%-----|-----------------------------------------|
C|-7-------|-----------%---------------%-----|-----------%---------------%-----|-----------------------------------------|
G|-5-------|-0----0----------0----0----------|-0----0----------0----0----------|---------------------2--------------2----|
C|-0-------|-0----0----------0----0----------|-0----0----------0----0----------|-1----2----1----0----2----1----0----2----|


D|-----------------------------------------|-------------------|
A|-----------------------------------------|-------------------|
F|-----------------------------------------|------%-------%----|
C|---------------------3----3----3---------|------%-------%----|
G|---------------------3----3----3---------|-0-----------------|
C|-1----0----1----1-------------------0----|-0-----------------|

    

Nézd meg a videót és ismerd meg a leggyorsabb utat, hogyan tanulhatod meg kedvenc számaid gitáron!