Hogyan játszd el gitáron a Metallica – The Struggle Within dalt?

Metallica The Struggle Within – GITÁR PRO TAB, KOTTA, AKKORDOK

Kotta típusa: Fill Guitar

(Általában egy zeneszám minden kottája: gitár, szólógitár, basszusgitár, ének, zongora, dob stb. megtalálható az oldalon, de mindegyik egy külön bejegyzésben. Ha egy másik hangszer gitártabos kottáját keresed, akkor az oldal alján vagy a keresőben megtalálod. Sokszor a zenekar tagjának a neve lesz a kotta kategóriája.)

        


E|---------|---------|---------|---------|---------|---------|---------|--------------7----8----|
B|---------|---------|---------|---------|---------|---------|---------|------------------------|
G|-%-------|-%-------|-%-------|-%-------|-%-------|-%-------|-%-------|-%------%---------------|
D|-%-------|-%-------|-%-------|-%-------|-%-------|-%-------|-%-------|-%------%---------------|
A|---------|---------|---------|---------|---------|---------|---------|------------------------|
E|---------|---------|---------|---------|---------|---------|---------|------------------------|


E|-8--10------10-10----|---------|---------|---------|--------|--------|--------|--------|
B|---------------------|---------|---------|---------|--------|--------|--------|--------|
G|---------------------|-%-------|-%-------|-%-------|-%------|-%------|-%------|-%------|
D|---------------------|-%-------|-%-------|-%-------|-%------|-%------|-%------|-%------|
A|---------------------|---------|---------|---------|--------|--------|--------|--------|
E|---------------------|---------|---------|---------|--------|--------|--------|--------|


E|--------|--------|--------|--------|--------|--------|--------|--------|------------|
B|--------|--------|--------|--------|--------|--------|--------|--------|------------|
G|-%------|-%------|-%------|-%------|-%------|-%------|-%------|-%------|-%-----%----|
D|-%------|-%------|-%------|-%------|-%------|-%------|-%------|-%------|-%-----%----|
A|--------|--------|--------|--------|--------|--------|--------|--------|------------|
E|--------|--------|--------|--------|--------|--------|--------|--------|------------|


E|--------|--------|--------|--------|--------|--------|--------|--------|--------|
B|--------|--------|--------|--------|--------|--------|--------|--------|--------|
G|-%------|-%------|-%------|-%------|-%------|-%------|-%------|-%------|-%------|
D|-%------|-%------|-%------|-%------|-%------|-%------|-%------|-%------|-%------|
A|--------|--------|--------|--------|--------|--------|--------|--------|--------|
E|--------|--------|--------|--------|--------|--------|--------|--------|--------|


E|--------|--------|--------|--------|--------|--------|--------|--------|--------|
B|--------|--------|--------|--------|--------|--------|--------|--------|--------|
G|-%------|-%------|-%------|-%------|-%------|-%------|-%------|-%------|-%------|
D|-%------|-%------|-%------|-%------|-%------|-%------|-%------|-%------|-%------|
A|--------|--------|--------|--------|--------|--------|--------|--------|--------|
E|--------|--------|--------|--------|--------|--------|--------|--------|--------|


E|--------|--------|--------------|--------|--------|--------|--------|--------|--------|
B|--------|--------|--------------|--------|--------|--------|--------|--------|--------|
G|-%------|-%------|-%------%-----|-%------|-%------|-%------|-%------|-%------|-%------|
D|-%------|-%------|-%------%-----|-%------|-%------|-%------|-%------|-%------|-%------|
A|--------|--------|--------------|--------|--------|--------|--------|--------|--------|
E|--------|--------|--------------|--------|--------|--------|--------|--------|--------|


E|--------------|--------|--------|--------|--------|--------|--------|--------------|
B|--------------|--------|--------|--------|--------|--------|--------|--------------|
G|-%------%-----|-%------|-%------|-%------|-%------|-%------|-%------|-%------%-----|
D|-%------%-----|-%------|-%------|-%------|-%------|-%------|-%------|-%------%-----|
A|--------------|--------|--------|--------|--------|--------|--------|--------------|
E|--------------|--------|--------|--------|--------|--------|--------|--------------|


E|--------|-------------------------|-------------------------|-------------------------|
B|--------|-------------------------|-------------------------|-------------------------|
G|-%------|-------------------------|-------------------------|-------------------------|
D|-%------|-5----5------5----7------|-3----3------5----7------|-5----5------5----7------|
A|--------|-5----5------------------|-3----3------------------|-5----5------------------|
E|--------|-3----3------------------|-1----1------------------|-3----3------------------|


E|-------------------------|---------|---------|---------|---------|---------|---------|
B|-------------------------|---------|---------|---------|---------|---------|---------|
G|-------------------------|-%-------|-%-------|-%-------|-%-------|-%-------|-%-------|
D|-3----3------5----7------|-%-------|-%-------|-%-------|-%-------|-%-------|-%-------|
A|-3----3------------------|---------|---------|---------|---------|---------|---------|
E|-1----1------------------|---------|---------|---------|---------|---------|---------|


E|---------|---------|-------------------------|-------------------------|-------------------------|
B|---------|---------|-------------------------|-------------------------|-------------------------|
G|-%-------|-%-------|-------------------------|-------------------------|-------------------------|
D|-%-------|-%-------|-5----5------5----7------|-3----3------5----7------|-5----5------5----7------|
A|---------|---------|-5----5------------------|-3----3------------------|-5----5------------------|
E|---------|---------|-3----3------------------|-1----1------------------|-3----3------------------|


E|-------------------------|------------------------|---------------------------------|
B|-------------------------|------------------------|-------3-----3--3----5----5------|
G|-------------------------|-------%----------------|----X----------------------------|
D|-3----3------5----7------|-2-----%----2----2------|-X-------------------------------|
A|-3----3------------------|-2----------2----2------|---------------------------------|
E|-1----1------------------|-0----------0----0------|---------------------------------|


E|--------------------|--------|--------|--------|--------|--------|--------|--------|
B|-5------5------5----|--------|--------|--------|--------|--------|--------|--------|
G|--------------------|-%------|-%------|-%------|-%------|-%------|-%------|-%------|
D|--------------------|-%------|-%------|-%------|-%------|-%------|-%------|-%------|
A|--------------------|--------|--------|--------|--------|--------|--------|--------|
E|--------------------|--------|--------|--------|--------|--------|--------|--------|


E|--------|--------|--------|--------|--------|--------|--------|--------|--------|
B|--------|--------|--------|--------|--------|--------|--------|--------|--------|
G|-%------|-%------|-%------|-%------|-%------|-%------|-%------|-%------|-%------|
D|-%------|-%------|-%------|-%------|-%------|-%------|-%------|-%------|-%------|
A|--------|--------|--------|--------|--------|--------|--------|--------|--------|
E|--------|--------|--------|--------|--------|--------|--------|--------|--------|


E|--------|--------|--------|--------|--------|--------|--------|--------|--------------|
B|--------|--------|--------|--------|--------|--------|--------|--------|--------------|
G|-%------|-%------|-%------|-%------|-%------|-%------|-%------|-%------|-%------%-----|
D|-%------|-%------|-%------|-%------|-%------|-%------|-%------|-%------|-%------%-----|
A|--------|--------|--------|--------|--------|--------|--------|--------|--------------|
E|--------|--------|--------|--------|--------|--------|--------|--------|--------------|


E|--------|--------|--------|--------|--------|--------|--------------|--------|--------|
B|--------|--------|--------|--------|--------|--------|--------------|--------|--------|
G|-%------|-%------|-%------|-%------|-%------|-%------|-%------%-----|-%------|-%------|
D|-%------|-%------|-%------|-%------|-%------|-%------|-%------%-----|-%------|-%------|
A|--------|--------|--------|--------|--------|--------|--------------|--------|--------|
E|--------|--------|--------|--------|--------|--------|--------------|--------|--------|


E|--------|--------|--------|--------|--------------|--------|-------------------------|
B|--------|--------|--------|--------|--------------|--------|-------------------------|
G|-%------|-%------|-%------|-%------|-%------%-----|-%------|-------------------------|
D|-%------|-%------|-%------|-%------|-%------%-----|-%------|-5----5------5----7------|
A|--------|--------|--------|--------|--------------|--------|-5----5------------------|
E|--------|--------|--------|--------|--------------|--------|-3----3------------------|


E|-------------------------|-------------------------|-------------------------|---------|
B|-------------------------|-------------------------|-------------------------|---------|
G|-------------------------|-------------------------|-------------------------|-%-------|
D|-3----3------5----7------|-5----5------5----7------|-3----3------5----7------|-%-------|
A|-3----3------------------|-5----5------------------|-3----3------------------|---------|
E|-1----1------------------|-3----3------------------|-1----1------------------|---------|


E|---------|---------|---------|---------|---------|---------|---------|-------------------------|
B|---------|---------|---------|---------|---------|---------|---------|-------------------------|
G|-%-------|-%-------|-%-------|-%-------|-%-------|-%-------|-%-------|-------------------------|
D|-%-------|-%-------|-%-------|-%-------|-%-------|-%-------|-%-------|-5----5------5----7------|
A|---------|---------|---------|---------|---------|---------|---------|-5----5------------------|
E|---------|---------|---------|---------|---------|---------|---------|-3----3------------------|


E|-------------------------|-------------------------|-------------------------|------------------------|
B|-------------------------|-------------------------|-------------------------|------------------------|
G|-------------------------|-------------------------|-------------------------|-------%----------------|
D|-3----3------5----7------|-5----5------5----7------|-3----3------5----7------|-2-----%----2----2------|
A|-3----3------------------|-5----5------------------|-3----3------------------|-2----------2----2------|
E|-1----1------------------|-3----3------------------|-1----1------------------|-0----------0----0------|


E|---------------------------------|---------|--------------------|--------|--------|
B|-------3-----3--3----5----5------|-5-------|-5------5------5----|--------|--------|
G|----X----------------------------|---------|--------------------|-%------|-%------|
D|-X-------------------------------|---------|--------------------|-%------|-%------|
A|---------------------------------|---------|--------------------|--------|--------|
E|---------------------------------|---------|--------------------|--------|--------|


E|--------|--------|--------|--------|--------|--------|--------|--------|--------|
B|--------|--------|--------|--------|--------|--------|--------|--------|--------|
G|-%------|-%------|-%------|-%------|-%------|-%------|-%------|-%------|-%------|
D|-%------|-%------|-%------|-%------|-%------|-%------|-%------|-%------|-%------|
A|--------|--------|--------|--------|--------|--------|--------|--------|--------|
E|--------|--------|--------|--------|--------|--------|--------|--------|--------|


E|--------|--------|--------|--------|--------|---------|---------|---------|---------|
B|--------|--------|--------|--------|--------|---------|---------|---------|---------|
G|-%------|-%------|-%------|-%------|-%------|-%-------|-%-------|-%-------|-%-------|
D|-%------|-%------|-%------|-%------|-%------|-%-------|-%-------|-%-------|-%-------|
A|--------|--------|--------|--------|--------|---------|---------|---------|---------|
E|--------|--------|--------|--------|--------|---------|---------|---------|---------|


E|---------|---------|---------|---------|--------|--------|--------|--------|--------------|
B|---------|---------|---------|---------|--------|--------|--------|--------|--------------|
G|-%-------|-%-------|-%-------|-%-------|-%------|-%------|-%------|-%------|-%------%-----|
D|-%-------|-%-------|-%-------|-%-------|-%------|-%------|-%------|-%------|-%------%-----|
A|---------|---------|---------|---------|--------|--------|--------|--------|--------------|
E|---------|---------|---------|---------|--------|--------|--------|--------|--------------|


E|--------------|--------------|---------|---------|---------|---------|---------|---------|
B|--------------|--------------|---------|---------|---------|---------|---------|---------|
G|-%------%-----|-%------%-----|-%-------|-%-------|-%-------|-%-------|-%-------|-%-------|
D|-%------%-----|-%------%-----|-%-------|-%-------|-%-------|-%-------|-%-------|-%-------|
A|--------------|--------------|---------|---------|---------|---------|---------|---------|
E|--------------|--------------|---------|---------|---------|---------|---------|---------|


E|--------|--------|--------|--------|--------|--------|--------|--------|--------|
B|--------|--------|--------|--------|--------|--------|--------|--------|--------|
G|-%------|-%------|-%------|-%------|-%------|-%------|-%------|-%------|-%------|
D|-%------|-%------|-%------|-%------|-%------|-%------|-%------|-%------|-%------|
A|--------|--------|--------|--------|--------|--------|--------|--------|--------|
E|--------|--------|--------|--------|--------|--------|--------|--------|--------|


E|--------------|--------|--------|--------|--------|--------|--------|--------------|
B|--------------|--------|--------|--------|--------|--------|--------|--------------|
G|-%------%-----|-%------|-%------|-%------|-%------|-%------|-%------|-%------%-----|
D|-%------%-----|-%------|-%------|-%------|-%------|-%------|-%------|-%------%-----|
A|--------------|--------|--------|--------|--------|--------|--------|--------------|
E|--------------|--------|--------|--------|--------|--------|--------|--------------|


E|--------|--------|--------|--------|--------|--------|--------------|--------|-------------------------|
B|--------|--------|--------|--------|--------|--------|--------------|--------|-------------------------|
G|-%------|-%------|-%------|-%------|-%------|-%------|-%------%-----|-%------|-------------------------|
D|-%------|-%------|-%------|-%------|-%------|-%------|-%------%-----|-%------|-5----5------5----7------|
A|--------|--------|--------|--------|--------|--------|--------------|--------|-5----5------------------|
E|--------|--------|--------|--------|--------|--------|--------------|--------|-3----3------------------|


E|-------------------------|-------------------------|-------------------------|---------|
B|-------------------------|-------------------------|-------------------------|---------|
G|-------------------------|-------------------------|-------------------------|-%-------|
D|-3----3------5----7------|-5----5------5----7------|-3----3------5----7------|-%-------|
A|-3----3------------------|-5----5------------------|-3----3------------------|---------|
E|-1----1------------------|-3----3------------------|-1----1------------------|---------|


E|---------|---------|---------|---------|---------|---------|---------|---------|---------|
B|---------|---------|---------|---------|---------|---------|---------|---------|---------|
G|-%-------|-%-------|-%-------|-%-------|-%-------|-%-------|-%-------|-%-------|-%-------|
D|-%-------|-%-------|-%-------|-%-------|-%-------|-%-------|-%-------|-%-------|-%-------|
A|---------|---------|---------|---------|---------|---------|---------|---------|---------|
E|---------|---------|---------|---------|---------|---------|---------|---------|---------|


E|---------|---------|------------------------|---------------------------------|--------------------|
B|---------|---------|------------------------|-------3-----3--3----5----5------|-5------5------5----|
G|-%-------|-%-------|-------%----------------|----X----------------------------|--------------------|
D|-%-------|-%-------|-2-----%----2----2------|-X-------------------------------|--------------------|
A|---------|---------|-2----------2----2------|---------------------------------|--------------------|
E|---------|---------|-0----------0----0------|---------------------------------|--------------------|


E|--------|--------|--------|--------|--------|--------|--------|--------|
B|--------|--------|--------|--------|--------|--------|--------|--------|
G|-%------|-%------|-%------|-%------|-%------|-%------|-%------|-%------|
D|-%------|-%------|-%------|-%------|-%------|-%------|-%------|-%------|
A|--------|--------|--------|--------|--------|--------|--------|--------|
E|--------|--------|--------|--------|--------|--------|--------|--------|

    

Nézd meg a videót és ismerd meg a leggyorsabb utat, hogyan tanulhatod meg kedvenc számaid gitáron!