Hogyan játszd el gitáron a Metallica – The Unforgiven II dalt?

Metallica The Unforgiven II – GITÁR PRO TAB, KOTTA, AKKORDOK

Kotta típusa: Kirk Hammett Clean Guitar

(Általában egy zeneszám minden kottája: gitár, szólógitár, basszusgitár, ének, zongora, dob stb. megtalálható az oldalon, de mindegyik egy külön bejegyzésben. Ha egy másik hangszer gitártabos kottáját keresed, akkor az oldal alján vagy a keresőben megtalálod. Sokszor a zenekar tagjának a neve lesz a kotta kategóriája.)

        


D#|---------|---------|---------|---------|---------|---------|---------|------------------------|
A#|---------|---------|---------|---------|---------|---------|---------|--------------------5---|
F#|-%-------|-%-------|-%-------|-%-------|-%-------|-%-------|-%-------|-%------%-----%---------|
C#|-%-------|-%-------|-%-------|-%-------|-%-------|-%-------|-%-------|-%------%-----%-----7---|
G#|---------|---------|---------|---------|---------|---------|---------|------------------------|
D#|---------|---------|---------|---------|---------|---------|---------|------------------------|


D#|----------------------------|----------------------------|---------|---------|---------|
A#|-10-----10--12--13-----12---|-12-----12--12--9------9----|-10------|---------|---------|
F#|----------------------------|----------------------------|---------|-%-------|-%-------|
C#|-10-----10--12--14-----12---|-12-----12--12--9------9----|-10------|-%-------|-%-------|
G#|----------------------------|----------------------------|---------|---------|---------|
D#|----------------------------|----------------------------|---------|---------|---------|


D#|---------|---------|---------|---------|---------|-0--------0---0---0---0---0---3----3---3---3---3---3---3---|
A#|---------|---------|---------|---------|---------|-0---1----1---1---1---1---1---3----3---3---3---3---3---3---|
F#|-%-------|-%-------|-%-------|-%-------|-%-------|-2--------2---2---2---2---2---0----0---0---0---0---0---0---|
C#|-%-------|-%-------|-%-------|-%-------|-%-------|-2--------2---2---2---2---2---2----2---2---2---2---2---2---|
G#|---------|---------|---------|---------|---------|-0--------0---0---0---0---0---3----3---3---3---3---3---3---|
D#|---------|---------|---------|---------|---------|-----------------------------------------------------------|


D#|-3----3---3---3---3---3---3---0---0---0---0----0---0---0---|-0--------0---0---0---0---0---3----3---3---3---3---3---3---|
A#|-3----3---3---3---3---3---3---0---0---0---0----0---0---0---|-0---1----1---1---1---1---1---3----3---3---3---3---3---3---|
F#|-0----0---0---0---0---0---0---0---0---0---1----1---1---1---|-2--------2---2---2---2---2---0----0---0---0---0---0---0---|
C#|-0----0---0---0---0---0---0---2---2---2---2----2---2---2---|-2--------2---2---2---2---2---2----2---2---2---2---2---2---|
G#|-2----2---2---2---2---2---2---2---2---2---2----2---2---2---|-0--------0---0---0---0---0---3----3---3---3---3---3---3---|
D#|-3----3---3---3---3---3---3---0---0---0---0----0---0---0---|-----------------------------------------------------------|


D#|-3----3---3---3---3---3---3---0---0---0---0----0---0---0---|---------|---------|
A#|-3----3---3---3---3---3---3---0---0---0---0----0---0---0---|---------|---------|
F#|-0----0---0---0---0---0---0---0---0---0---1----1---1---1---|-%-------|-%-------|
C#|-0----0---0---0---0---0---0---2---2---2---2----2---2---2---|-%-------|-%-------|
G#|-2----2---2---2---2---2---2---2---2---2---2----2---2---2---|---------|---------|
D#|-3----3---3---3---3---3---3---0---0---0---0----0---0---0---|---------|---------|


D#|---------|------------------------|----------------------------|----------------------------|
A#|---------|--------------------5---|-10-----10--12--13-----12---|-12-----12--12--9------9----|
F#|-%-------|-%------%-----%---------|----------------------------|----------------------------|
C#|-%-------|-%------%-----%-----7---|-10-----10--12--14-----12---|-12-----12--12--9------9----|
G#|---------|------------------------|----------------------------|----------------------------|
D#|---------|------------------------|----------------------------|----------------------------|


D#|----------------------------|----------------------------|---------------|--------------------------------------------|
A#|-10-----10--12--13-----12---|-12-----12--12--9------9----|-10-----10-----|-10---12--12--12---12---10---12---12---10---|
F#|----------------------------|----------------------------|---------------|--------------------------------------------|
C#|-10-----10--12--14-----12---|-12-----12--12--9------9----|-12-----12-----|-12---12--12--12---12---12---12---12---12---|
G#|----------------------------|----------------------------|---------------|--------------------------------------------|
D#|----------------------------|----------------------------|---------------|--------------------------------------------|


D#|--------|---------|---------|---------|---------|---------|---------|---------|---------|
A#|-10-----|---------|---------|---------|---------|---------|---------|---------|---------|
F#|--------|-%-------|-%-------|-%-------|-%-------|-%-------|-%-------|-%-------|-%-------|
C#|-14-----|-%-------|-%-------|-%-------|-%-------|-%-------|-%-------|-%-------|-%-------|
G#|--------|---------|---------|---------|---------|---------|---------|---------|---------|
D#|--------|---------|---------|---------|---------|---------|---------|---------|---------|


D#|---------|---------|---------|---------|-8---------8---------8---------8---------|
A#|---------|---------|---------|---------|-10--------10--------8---------8---------|
F#|-%-------|-%-------|-%-------|-%-------|------9---------9---------9---------9----|
C#|-%-------|-%-------|-%-------|-%-------|-----------------------------------------|
G#|---------|---------|---------|---------|-----------------------------------------|
D#|---------|---------|---------|---------|-----------------------------------------|


D#|-7---------7---------7---------7---------|-8---------8---------8---------8---------|
A#|-8---------8---------9---------9---------|-10--------10--------8---------8---------|
F#|------7---------7---------9---------9----|------9---------9---------9---------9----|
C#|-----------------------------------------|-----------------------------------------|
G#|-----------------------------------------|-----------------------------------------|
D#|-----------------------------------------|-----------------------------------------|


D#|-7---------7---------7---------7------------|-8---------8---------8---------8---------|
A#|-8---------8---------9---------9---10--9----|-10--------10--------8---------8---------|
F#|------7---------7---------9-----------------|------9---------9---------9---------9----|
C#|--------------------------------------------|-----------------------------------------|
G#|--------------------------------------------|-----------------------------------------|
D#|--------------------------------------------|-----------------------------------------|


D#|-7---------7---------7---------7---------|-8---------8---------8---------8---------|
A#|-8---------8---------9---------9---------|-10--------10--------8---------8---------|
F#|------7---------7---------9---------9----|------9---------9---------9---------9----|
C#|-----------------------------------------|-----------------------------------------|
G#|-----------------------------------------|-----------------------------------------|
D#|-----------------------------------------|-----------------------------------------|


D#|-8----7----7-----12---12---12---12---|-10-----10---13-----13---|-15-----------13----|
A#|-8----8----8-----13---12---12---12---|-10-----10---13-----13---|-15-----------------|
F#|-7----7----7-------------------------|-------------------------|--------%-----10----|
C#|-------------------------------------|-------------------------|--------%-----------|
G#|-------------------------------------|-------------------------|--------------------|
D#|-------------------------------------|-------------------------|--------------------|


D#|-12-----|---------|---------|---------|---------|---------|---------|---------|---------|
A#|-10-----|---------|---------|---------|---------|---------|---------|---------|---------|
F#|--------|-%-------|-%-------|-%-------|-%-------|-%-------|-%-------|-%-------|-%-------|
C#|--------|-%-------|-%-------|-%-------|-%-------|-%-------|-%-------|-%-------|-%-------|
G#|--------|---------|---------|---------|---------|---------|---------|---------|---------|
D#|--------|---------|---------|---------|---------|---------|---------|---------|---------|


D#|-----------------------------------------------------------|-----------------------------------------------------------|
A#|-0---1---X---1---1----1---X---1---0---X---0---0----0---X---|-0---3---X---3---3----3---X---3---1---X---1---1----0---X---|
F#|-2---2---X---2---2----2---X---2---2---X---0---0----0---X---|-0---0---X---0---0----0---X---0---0---X---0---0----0---X---|
C#|-2---2---X---2---2----2---X---2---2---X---2---2----2---X---|-2---2---X---2---2----2---X---2---2---X---2---2----2---X---|
G#|-0---0---X---0---0----0---X---0---0---X---2---2----2---X---|-2---3---X---3---3----3---X---3---3---X---3---3----2---X---|
D#|-----------------------------------------------------------|-----------------------------------------------------------|


D#|-----------------------------------------------------------|--------------------------------------------------------|
A#|-0---1---X---1---1----1---X---1---0---X---0---0----0---X---|-0---3---X---3---3----3---X-----------------------------|
F#|-2---2---X---2---2----2---X---2---2---X---0---0----0---X---|-0---0---X---0---0----0---X---7---5---4---5-----4-------|
C#|-2---2---X---2---2----2---X---2---2---X---2---2----2---X---|-2---2---X---2---2----2---X-------------------------7---|
G#|-0---0---X---0---0----0---X---0---0---X---2---2----2---X---|-2---3---X---3---3----3---X-----------------------------|
D#|-----------------------------------------------------------|--------------------------------------------------------|


D#|-----------------------------------------------------------|-----------------------------------------------------------|
A#|-0---1---X---1---1----1---X---1---0---X---0---0----0---X---|-0---3---X---3---3----3---X---3---1---X---1---1----0---X---|
F#|-2---2---X---2---2----2---X---2---2---X---0---0----0---X---|-0---0---X---0---0----0---X---0---0---X---0---0----0---X---|
C#|-2---2---X---2---2----2---X---2---2---X---2---2----2---X---|-2---2---X---2---2----2---X---2---2---X---2---2----2---X---|
G#|-0---0---X---0---0----0---X---0---0---X---2---2----2---X---|-2---3---X---3---3----3---X---3---3---X---3---3----2---X---|
D#|-----------------------------------------------------------|-----------------------------------------------------------|


D#|-----------------------------------------------------------|--------------------------------------------------------|
A#|-0---1---X---1---1----1---X---1---0---X---0---0----0---X---|-0---3---X---3---3----3---X-----------------------------|
F#|-2---2---X---2---2----2---X---2---2---X---0---0----0---X---|-0---0---X---0---0----0---X---7---5---4---5-----4-------|
C#|-2---2---X---2---2----2---X---2---2---X---2---2----2---X---|-2---2---X---2---2----2---X-------------------------7---|
G#|-0---0---X---0---0----0---X---0---0---X---2---2----2---X---|-2---3---X---3---3----3---X-----------------------------|
D#|-----------------------------------------------------------|--------------------------------------------------------|


D#|---------|---------|---------|---------|---------|---------|---------|---------|
A#|---------|---------|---------|---------|---------|---------|---------|---------|
F#|-%-------|-%-------|-%-------|-%-------|-%-------|-%-------|-%-------|-%-------|
C#|-%-------|-%-------|-%-------|-%-------|-%-------|-%-------|-%-------|-%-------|
G#|---------|---------|---------|---------|---------|---------|---------|---------|
D#|---------|---------|---------|---------|---------|---------|---------|---------|


D#|---------|---------|---------|---------|---------|--------|---------|---------|---------|
A#|---------|---------|---------|---------|---------|--------|---------|---------|---------|
F#|-%-------|-%-------|-%-------|-%-------|-%-------|-%------|-%-------|-%-------|-%-------|
C#|-%-------|-%-------|-%-------|-%-------|-%-------|-%------|-%-------|-%-------|-%-------|
G#|---------|---------|---------|---------|---------|--------|---------|---------|---------|
D#|---------|---------|---------|---------|---------|--------|---------|---------|---------|


D#|---------|---------|---------|---------|---------|---------------------------------|
A#|---------|---------|---------|---------|---------|---------------------------------|
F#|-%-------|-%-------|-%-------|-%-------|-%-------|-%-----2----4----5-----5-----5---|
C#|-%-------|-%-------|-%-------|-%-------|-%-------|-%-------------------------------|
G#|---------|---------|---------|---------|---------|---------------------------------|
D#|---------|---------|---------|---------|---------|---------------------------------|


D#|-------------------------|-----------------------------|---------------|---------------------------------|
A#|-------------------------|-----------------------3-----|-1-------------|---------------------------------|
F#|-5---4---0---0---0-------|-%-----2----4----5-----------|--------%------|-%-----2----4----5-----5-----5---|
C#|-------------------------|-%---------------------------|--------%------|-%-------------------------------|
G#|-------------------------|-----------------------------|---------------|---------------------------------|
D#|-------------------------|-----------------------------|---------------|---------------------------------|


D#|-------------------------|-----------------------------|---------------|-0---0-----0-----3---3-----3-----|
A#|-------------------------|-----------------------3-----|-5-------------|-0---1-----1-----3---3-----3-----|
F#|-5---4---0---0---0-------|-%-----2----4----5-----------|--------%------|-2---2-----2-----0---0-----0-----|
C#|-------------------------|-%---------------------------|--------%------|-2---2-----2-----2---2-----2-----|
G#|-------------------------|-----------------------------|---------------|-0---0-----0-----3---3-----3-----|
D#|-------------------------|-----------------------------|---------------|---------------------------------|


D#|-3---3-----3-----0---0-----0-----X---|-0---0----------0--------------------|---------|
A#|-3---3-----3-----0---0-----0-----X---|-0---1-----1----1--------------------|---------|
F#|-0---0-----0-----0---1-----1-----X---|-2---2-----2----2----4---2-----0-----|---------|
C#|-0---0-----0-----2---2-----2-----X---|-2---2-----2----2----0---0-----2-----|-5-------|
G#|-2---2-----2-----2---2-----2-----X---|-0---0-----0----0----2---2-----2-----|-5-------|
D#|-3---3-----------0---0-----0-----X---|---------------------3---3-----------|-3-------|


D#|---------|---------|---------|
A#|---------|---------|---------|
F#|-%-------|-%-------|-%-------|
C#|-%-------|-%-------|-%-------|
G#|---------|---------|---------|
D#|---------|---------|---------|

    

Nézd meg a videót és ismerd meg a leggyorsabb utat, hogyan tanulhatod meg kedvenc számaid gitáron!