Hogyan játszd el gitáron a Metallica – The Unforgiven II dalt?

Metallica The Unforgiven II – GITÁR PRO TAB, KOTTA, AKKORDOK

Kotta típusa: Strings

(Általában egy zeneszám minden kottája: gitár, szólógitár, basszusgitár, ének, zongora, dob stb. megtalálható az oldalon, de mindegyik egy külön bejegyzésben. Ha egy másik hangszer gitártabos kottáját keresed, akkor az oldal alján vagy a keresőben megtalálod. Sokszor a zenekar tagjának a neve lesz a kotta kategóriája.)

        


D#|---------|---------|-------------------------------|----------------------------------|
A#|---------|---------|-------------------------------|----------------------------------|
F#|---------|---------|-------------4----5----7---5---|-7------9----7----5---7---5---5---|
C#|-3-------|-3-------|-7------7----4----5----7---5---|-7------9----7----5---7---5---5---|
G#|---------|---------|-7------7----2----3----5---3---|-5------7----5----3---5---3---3---|
D#|---------|---------|-5------5----------------------|----------------------------------|


D#|-------------------------------|-------------------------------|-----------0---------------------------------3----|
A#|-------------------------------|-------------------------------|---------------1------------------------3---------|
F#|-5-----------4----5----7---5---|-7------7----------------------|------------------------------------0-------------|
C#|-5------7----4----5----7---5---|-7------7-----7---7---9---7----|-------2------------------------2-----------------|
G#|-3------7----2----3----5---3---|-5------5-----7---7---9---7----|-0-----------------0---2---3----------------------|
D#|--------5----------------------|--------------5---5---7---5----|--------------------------------------------------|


D#|-3---3--------3--------------------------------------------|-----------0---------------------------------3----|
A#|-3---3------------3---3-------0------------1---3---1---0---|---------------1------------------------3---------|
F#|-----------------------------------0-------2---4---2---0---|------------------------------------0-------------|
C#|---------------------------------------2-------------------|-------2------------------------2-----------------|
G#|-----------------------------------------------------------|-0-----------------0---2---3----------------------|
D#|----------3---------------0--------------------------------|--------------------------------------------------|


D#|-3---3--------3--------------------------------------------|-----------0---------------------------------3----|
A#|-3---3------------3---3-------0------------1--3---3---1----|---------------1------------------------3---------|
F#|-----------------------------------0-------2--4---4---2----|------------------------------------0-------------|
C#|---------------------------------------2-------------------|-------2------------------------2-----------------|
G#|-----------------------------------------------------------|-0-----------------0---2---3----------------------|
D#|----------3---------------0--------------------------------|--------------------------------------------------|


D#|-3---3--------3--------------------------------------------|-----------0---------------------------------3----|
A#|-3---3------------3---3-------0------------1---3---1---0---|---------------1------------------------3---------|
F#|-----------------------------------0-------2---4---2---0---|------------------------------------0-------------|
C#|---------------------------------------2-------------------|-------2------------------------2-----------------|
G#|-----------------------------------------------------------|-0-----------------0---2---3----------------------|
D#|----------3---------------0--------------------------------|--------------------------------------------------|


D#|-3---3--------3--------------------------------------------|-----------0---------------------------------3----|
A#|-3---3------------3---3-------0------------1--3---3---1----|---------------1------------------------3---------|
F#|-----------------------------------0-------2--4---4---2----|------------------------------------0-------------|
C#|---------------------------------------2-------------------|-------2------------------------2-----------------|
G#|-----------------------------------------------------------|-0-----------------0---2---3----------------------|
D#|----------3---------------0--------------------------------|--------------------------------------------------|


D#|-3---3--------3--------------------------------------------|-----------0---------------------------------3----|
A#|-3---3------------3---3-------0------------1---3---1---0---|---------------1------------------------3---------|
F#|-----------------------------------0-------2---4---2---0---|------------------------------------0-------------|
C#|---------------------------------------2-------------------|-------2------------------------2-----------------|
G#|-----------------------------------------------------------|-0-----------------0---2---3----------------------|
D#|----------3---------------0--------------------------------|--------------------------------------------------|


D#|-3---3--------3--------------------------------------------|-------------------------------|
A#|-3---3------------3---3-------0------------1--3---3---1----|-------------------------------|
F#|-----------------------------------0-------2--4---4---2----|-------------4----5----7---5---|
C#|---------------------------------------2-------------------|-7------7----4----5----7---5---|
G#|-----------------------------------------------------------|-7------7----2----3----5---3---|
D#|----------3---------------0--------------------------------|-5------5----------------------|


D#|----------------------------------|-------------------------------|-------------------------------|
A#|----------------------------------|-------------------------------|-------------------------------|
F#|-7------9----7----5---7---5---5---|-5-----------4----5----7---5---|-7------7----------------------|
C#|-7------9----7----5---7---5---5---|-5------7----4----5----7---5---|-7------7-----7---7---9---7----|
G#|-5------7----5----3---5---3---3---|-3------7----2----3----5---3---|-5------5-----7---7---9---7----|
D#|----------------------------------|--------5----------------------|--------------5---5---7---5----|


D#|-----------0---------------------------------3----|-3---3--------3--------------------------------------------|
A#|---------------1------------------------3---------|-3---3------------3---3-------0------------1---3---1---0---|
F#|------------------------------------0-------------|-----------------------------------0-------2---4---2---0---|
C#|-------2------------------------2-----------------|---------------------------------------2-------------------|
G#|-0-----------------0---2---3----------------------|-----------------------------------------------------------|
D#|--------------------------------------------------|----------3---------------0--------------------------------|


D#|-----------0---------------------------------3----|-3---3--------3--------------------------------------------|
A#|---------------1------------------------3---------|-3---3------------3---3-------0------------1--3---3---1----|
F#|------------------------------------0-------------|-----------------------------------0-------2--4---4---2----|
C#|-------2------------------------2-----------------|---------------------------------------2-------------------|
G#|-0-----------------0---2---3----------------------|-----------------------------------------------------------|
D#|--------------------------------------------------|----------3---------------0--------------------------------|


D#|-----------0---------------------------------3----|-3---3--------3--------------------------------------------|
A#|---------------1------------------------3---------|-3---3------------3---3-------0------------1---3---1---0---|
F#|------------------------------------0-------------|-----------------------------------0-------2---4---2---0---|
C#|-------2------------------------2-----------------|---------------------------------------2-------------------|
G#|-0-----------------0---2---3----------------------|-----------------------------------------------------------|
D#|--------------------------------------------------|----------3---------------0--------------------------------|


D#|-----------0---------------------------------3----|-3---3--------3--------------------------------------------|
A#|---------------1------------------------3---------|-3---3------------3---3-------0------------1--3---3---1----|
F#|------------------------------------0-------------|-----------------------------------0-------2--4---4---2----|
C#|-------2------------------------2-----------------|---------------------------------------2-------------------|
G#|-0-----------------0---2---3----------------------|-----------------------------------------------------------|
D#|--------------------------------------------------|----------3---------------0--------------------------------|


D#|-----------1--------------------------------|-----------------------------------------|
A#|----------------3---------------------------|-----------------------------------------|
F#|------2-------------2------------------0----|----------------0-------------------0----|
C#|-0--------------------------------3---------|-----------0-------------------3---------|
G#|-----------------------------3--------------|------2-------------------3--------------|
D#|------------------------1-------------------|-3-------------------1-------------------|


D#|-0------|-----------------------------------------------------------|-----------------------------------------------------------|
A#|-1------|-0---1---X---1---1----1---X---1---0---X---0---0----0---X---|-0---3---X---3---3----3---X---3---1---X---1---1----0---X---|
F#|-2------|-2---2---X---2---2----2---X---2---2---X---0---0----0---X---|-0---0---X---0---0----0---X---0---0---X---0---0----0---X---|
C#|-2------|-2---2---X---2---2----2---X---2---2---X---2---2----2---X---|-2---2---X---2---2----2---X---2---2---X---2---2----2---X---|
G#|-0------|-0---0---X---0---0----0---X---0---0---X---2---2----2---X---|-2---3---X---3---3----3---X---3---3---X---3---3----2---X---|
D#|--------|-----------------------------------------------------------|-----------------------------------------------------------|


D#|-----------------------------------------------------------|--------------------------------------------------------|
A#|-0---1---X---1---1----1---X---1---0---X---0---0----0---X---|-0---3---X---3---3----3---X-----------------------------|
F#|-2---2---X---2---2----2---X---2---2---X---0---0----0---X---|-0---0---X---0---0----0---X---7---5---4---5-----4-------|
C#|-2---2---X---2---2----2---X---2---2---X---2---2----2---X---|-2---2---X---2---2----2---X-------------------------7---|
G#|-0---0---X---0---0----0---X---0---0---X---2---2----2---X---|-2---3---X---3---3----3---X-----------------------------|
D#|-----------------------------------------------------------|--------------------------------------------------------|


D#|-----------------------------------------------------------|-----------------------------------------------------------|
A#|-0---1---X---1---1----1---X---1---0---X---0---0----0---X---|-0---3---X---3---3----3---X---3---1---X---1---1----0---X---|
F#|-2---2---X---2---2----2---X---2---2---X---0---0----0---X---|-0---0---X---0---0----0---X---0---0---X---0---0----0---X---|
C#|-2---2---X---2---2----2---X---2---2---X---2---2----2---X---|-2---2---X---2---2----2---X---2---2---X---2---2----2---X---|
G#|-0---0---X---0---0----0---X---0---0---X---2---2----2---X---|-2---3---X---3---3----3---X---3---3---X---3---3----2---X---|
D#|-----------------------------------------------------------|-----------------------------------------------------------|


D#|-----------------------------------------------------------|--------------------------------------------------------|
A#|-0---1---X---1---1----1---X---1---0---X---0---0----0---X---|-0---3---X---3---3----3---X-----------------------------|
F#|-2---2---X---2---2----2---X---2---2---X---0---0----0---X---|-0---0---X---0---0----0---X---7---5---4---5-----4-------|
C#|-2---2---X---2---2----2---X---2---2---X---2---2----2---X---|-2---2---X---2---2----2---X-------------------------7---|
G#|-0---0---X---0---0----0---X---0---0---X---2---2----2---X---|-2---3---X---3---3----3---X-----------------------------|
D#|-----------------------------------------------------------|--------------------------------------------------------|


D#|-------------------------------|----------------------------------|-------------------------------|
A#|-------------------------------|----------------------------------|-------------------------------|
F#|-------------4----5----7---5---|-7------9----7----5---7---5---5---|-5-----------4----5----7---5---|
C#|-7------7----4----5----7---5---|-7------9----7----5---7---5---5---|-5------7----4----5----7---5---|
G#|-7------7----2----3----5---3---|-5------7----5----3---5---3---3---|-3------7----2----3----5---3---|
D#|-5------5----------------------|----------------------------------|--------5----------------------|


D#|-------------------------------|-------------------------|-8----7------12---13---12---12---|
A#|-------------------------------|-17----------------17----|-8----8------12---12---12---12---|
F#|-7------7----------------------|-------%-----%-----7-----|-7----7------13---13-------------|
C#|-7------7-----7---7---9---7----|-19----%-----%-----19----|---------------------------------|
G#|-5------5-----7---7---9---7----|-------------------------|---------------------------------|
D#|--------------5---5---7---5----|-------------------------|---------------------------------|


D#|-------------------------|-8----7------12---13---12---12---|-------------------------|
A#|-17----------------17----|-8----8------12---12---12---12---|-17----------------17----|
F#|-------%-----%-----------|-7----7------13---13-------------|-------%-----%-----------|
C#|-19----%-----%-----19----|---------------------------------|-19----%-----%-----19----|
G#|-------------------------|---------------------------------|-------------------------|
D#|-------------------------|---------------------------------|-------------------------|


D#|-8----7------12---13---12---12---|-------------------------|-8----7------12---13---12---12---|
A#|-8----8------12---12---12---12---|-17----------------17----|-8----8------12---12---12---12---|
F#|-7----7------13---13-------------|-------%-----%-----------|-7----7------13---13-------------|
C#|---------------------------------|-19----%-----%-----19----|---------------------------------|
G#|---------------------------------|-------------------------|---------------------------------|
D#|---------------------------------|-------------------------|---------------------------------|


D#|---------------------------------|---------------------------13----|-12-----|-----------------------------------------------------------|
A#|-----------3---------------1-----|---------------------------1-----|--------|-0---1---X---1---1----1---X---1---0---X---0---0----0---X---|
F#|------2---------------2----------|-----------0----------2----10----|-9------|-2---2---X---2---2----2---X---2---2---X---0---0----0---X---|
C#|-0---------------3---------------|-----------------3---------------|--------|-2---2---X---2---2----2---X---2---2---X---2---2----2---X---|
G#|---------------------------------|------2--------------------------|--------|-0---0---X---0---0----0---X---0---0---X---2---2----2---X---|
D#|---------------------------------|-3-------------------------------|--------|-----------------------------------------------------------|


D#|-----------------------------------------------------------|-----------------------------------------------------------|
A#|-0---3---X---3---3----3---X---3---1---X---1---1----0---X---|-0---1---X---1---1----1---X---1---0---X---0---0----0---X---|
F#|-0---0---X---0---0----0---X---0---0---X---0---0----0---X---|-2---2---X---2---2----2---X---2---2---X---0---0----0---X---|
C#|-2---2---X---2---2----2---X---2---2---X---2---2----2---X---|-2---2---X---2---2----2---X---2---2---X---2---2----2---X---|
G#|-2---3---X---3---3----3---X---3---3---X---3---3----2---X---|-0---0---X---0---0----0---X---0---0---X---2---2----2---X---|
D#|-----------------------------------------------------------|-----------------------------------------------------------|


D#|--------------------------------------------------------|-----------------------------------------------------------|
A#|-0---3---X---3---3----3---X-----------------------------|-0---1---X---1---1----1---X---1---0---X---0---0----0---X---|
F#|-0---0---X---0---0----0---X---7---5---4---5-----4-------|-2---2---X---2---2----2---X---2---2---X---0---0----0---X---|
C#|-2---2---X---2---2----2---X-------------------------7---|-2---2---X---2---2----2---X---2---2---X---2---2----2---X---|
G#|-2---3---X---3---3----3---X-----------------------------|-0---0---X---0---0----0---X---0---0---X---2---2----2---X---|
D#|--------------------------------------------------------|-----------------------------------------------------------|


D#|-----------------------------------------------------------|-----------------------------------------------------------|
A#|-0---3---X---3---3----3---X---3---1---X---1---1----0---X---|-0---1---X---1---1----1---X---1---0---X---0---0----0---X---|
F#|-0---0---X---0---0----0---X---0---0---X---0---0----0---X---|-2---2---X---2---2----2---X---2---2---X---0---0----0---X---|
C#|-2---2---X---2---2----2---X---2---2---X---2---2----2---X---|-2---2---X---2---2----2---X---2---2---X---2---2----2---X---|
G#|-2---3---X---3---3----3---X---3---3---X---3---3----2---X---|-0---0---X---0---0----0---X---0---0---X---2---2----2---X---|
D#|-----------------------------------------------------------|-----------------------------------------------------------|


D#|--------------------------------------------------------|-----------------------------------------------------------|
A#|-0---3---X---3---3----3---X-----------------------------|-0---1---X---1---1----1---X---1---0---X---0---0----0---X---|
F#|-0---0---X---0---0----0---X---7---5---4---5-----4-------|-2---2---X---2---2----2---X---2---2---X---0---0----0---X---|
C#|-2---2---X---2---2----2---X-------------------------7---|-2---2---X---2---2----2---X---2---2---X---2---2----2---X---|
G#|-2---3---X---3---3----3---X-----------------------------|-0---0---X---0---0----0---X---0---0---X---2---2----2---X---|
D#|--------------------------------------------------------|-----------------------------------------------------------|


D#|-----------------------------------------------------------|-----------------------------------------------------------|
A#|-0---3---X---3---3----3---X---3---1---X---1---1----0---X---|-0---1---X---1---1----1---X---1---0---X---0---0----0---X---|
F#|-0---0---X---0---0----0---X---0---0---X---0---0----0---X---|-2---2---X---2---2----2---X---2---2---X---0---0----0---X---|
C#|-2---2---X---2---2----2---X---2---2---X---2---2----2---X---|-2---2---X---2---2----2---X---2---2---X---2---2----2---X---|
G#|-2---3---X---3---3----3---X---3---3---X---3---3----2---X---|-0---0---X---0---0----0---X---0---0---X---2---2----2---X---|
D#|-----------------------------------------------------------|-----------------------------------------------------------|


D#|--------------------------------------------------------|-----------------------------------------------------------|
A#|-0---3---X---3---3----3---X-----------------------------|-0---1---X---1---1----1---X---1---0---X---0---0----0---X---|
F#|-0---0---X---0---0----0---X---7---5---4---5-----4-------|-2---2---X---2---2----2---X---2---2---X---0---0----0---X---|
C#|-2---2---X---2---2----2---X-------------------------7---|-2---2---X---2---2----2---X---2---2---X---2---2----2---X---|
G#|-2---3---X---3---3----3---X-----------------------------|-0---0---X---0---0----0---X---0---0---X---2---2----2---X---|
D#|--------------------------------------------------------|-----------------------------------------------------------|


D#|-----------------------------------------------------------|-----------------------------------------------------------|
A#|-0---3---X---3---3----3---X---3---1---X---1---1----0---X---|-0---1---X---1---1----1---X---1---0---X---0---0----0---X---|
F#|-0---0---X---0---0----0---X---0---0---X---0---0----0---X---|-2---2---X---2---2----2---X---2---2---X---0---0----0---X---|
C#|-2---2---X---2---2----2---X---2---2---X---2---2----2---X---|-2---2---X---2---2----2---X---2---2---X---2---2----2---X---|
G#|-2---3---X---3---3----3---X---3---3---X---3---3----2---X---|-0---0---X---0---0----0---X---0---0---X---2---2----2---X---|
D#|-----------------------------------------------------------|-----------------------------------------------------------|


D#|--------------------------------------------------------|-------------------------------|
A#|-0---3---X---3---3----3---X-----------------------------|-------------------------------|
F#|-0---0---X---0---0----0---X---7---5---4---5-----4-------|-------------4----5----7---5---|
C#|-2---2---X---2---2----2---X-------------------------7---|-7------7----4----5----7---5---|
G#|-2---3---X---3---3----3---X-----------------------------|-7------7----2----3----5---3---|
D#|--------------------------------------------------------|-5------5----------------------|


D#|----------------------------------|-------------------------------|-------------------------------|
A#|----------------------------------|-------------------------------|-------------------------------|
F#|-7------9----7----5---7---5---5---|-5-----------4----5----7---5---|-7------7----------------------|
C#|-7------9----7----5---7---5---5---|-5------7----4----5----7---5---|-7------7-----7---7---9---7----|
G#|-5------7----5----3---5---3---3---|-3------7----2----3----5---3---|-5------5-----7---7---9---7----|
D#|----------------------------------|--------5----------------------|--------------5---5---7---5----|


D#|---------|---------|---------|---------|---------|---------|---------|---------|
A#|---------|---------|---------|---------|---------|---------|---------|---------|
F#|-%-------|-%-------|-%-------|-%-------|-%-------|-%-------|-%-------|-%-------|
C#|-%-------|-%-------|-%-------|-%-------|-%-------|-%-------|-%-------|-%-------|
G#|---------|---------|---------|---------|---------|---------|---------|---------|
D#|---------|---------|---------|---------|---------|---------|---------|---------|


D#|---------|--------|-----------------------------------------------------------|-----------------------------------------------------------|
A#|---------|--------|-0---1---X---1---1----1---X---1---0---X---0---0----0---X---|-0---3---X---3---3----3---X---3---1---X---1---1----0---X---|
F#|-%-------|-%------|-2---2---X---2---2----2---X---2---2---X---0---0----0---X---|-0---0---X---0---0----0---X---0---0---X---0---0----0---X---|
C#|-%-------|-%------|-2---2---X---2---2----2---X---2---2---X---2---2----2---X---|-2---2---X---2---2----2---X---2---2---X---2---2----2---X---|
G#|---------|--------|-0---0---X---0---0----0---X---0---0---X---2---2----2---X---|-2---3---X---3---3----3---X---3---3---X---3---3----2---X---|
D#|---------|--------|-----------------------------------------------------------|-----------------------------------------------------------|


D#|-----------------------------------------------------------|--------------------------------------------------------|
A#|-0---1---X---1---1----1---X---1---0---X---0---0----0---X---|-0---3---X---3---3----3---X-----------------------------|
F#|-2---2---X---2---2----2---X---2---2---X---0---0----0---X---|-0---0---X---0---0----0---X---7---5---4---5-----4-------|
C#|-2---2---X---2---2----2---X---2---2---X---2---2----2---X---|-2---2---X---2---2----2---X-------------------------7---|
G#|-0---0---X---0---0----0---X---0---0---X---2---2----2---X---|-2---3---X---3---3----3---X-----------------------------|
D#|-----------------------------------------------------------|--------------------------------------------------------|


D#|-----------------------------------------------------------|-----------------------------------------------------------|
A#|-0---1---X---1---1----1---X---1---0---X---0---0----0---X---|-0---3---X---3---3----3---X---3---1---X---1---1----0---X---|
F#|-2---2---X---2---2----2---X---2---2---X---0---0----0---X---|-0---0---X---0---0----0---X---0---0---X---0---0----0---X---|
C#|-2---2---X---2---2----2---X---2---2---X---2---2----2---X---|-2---2---X---2---2----2---X---2---2---X---2---2----2---X---|
G#|-0---0---X---0---0----0---X---0---0---X---2---2----2---X---|-2---3---X---3---3----3---X---3---3---X---3---3----2---X---|
D#|-----------------------------------------------------------|-----------------------------------------------------------|


D#|-----------------------------------------------------------|--------------------------------------------------------|
A#|-0---1---X---1---1----1---X---1---0---X---0---0----0---X---|-0---3---X---3---3----3---X-----------------------------|
F#|-2---2---X---2---2----2---X---2---2---X---0---0----0---X---|-0---0---X---0---0----0---X---7---5---4---5-----4-------|
C#|-2---2---X---2---2----2---X---2---2---X---2---2----2---X---|-2---2---X---2---2----2---X-------------------------7---|
G#|-0---0---X---0---0----0---X---0---0---X---2---2----2---X---|-2---3---X---3---3----3---X-----------------------------|
D#|-----------------------------------------------------------|--------------------------------------------------------|


D#|-----------------------------------------------------------|-----------------------------------------------------------|
A#|-0---1---X---1---1----1---X---1---0---X---0---0----0---X---|-0---3---X---3---3----3---X---3---1---X---1---1----0---X---|
F#|-2---2---X---2---2----2---X---2---2---X---0---0----0---X---|-0---0---X---0---0----0---X---0---0---X---0---0----0---X---|
C#|-2---2---X---2---2----2---X---2---2---X---2---2----2---X---|-2---2---X---2---2----2---X---2---2---X---2---2----2---X---|
G#|-0---0---X---0---0----0---X---0---0---X---2---2----2---X---|-2---3---X---3---3----3---X---3---3---X---3---3----2---X---|
D#|-----------------------------------------------------------|-----------------------------------------------------------|


D#|-----------------------------------------------------------|--------------------------------------------------------|
A#|-0---1---X---1---1----1---X---1---0---X---0---0----0---X---|-0---3---X---3---3----3---X-----------------------------|
F#|-2---2---X---2---2----2---X---2---2---X---0---0----0---X---|-0---0---X---0---0----0---X---7---5---4---5-----4-------|
C#|-2---2---X---2---2----2---X---2---2---X---2---2----2---X---|-2---2---X---2---2----2---X-------------------------7---|
G#|-0---0---X---0---0----0---X---0---0---X---2---2----2---X---|-2---3---X---3---3----3---X-----------------------------|
D#|-----------------------------------------------------------|--------------------------------------------------------|


D#|-----------------------------------------------------------|-----------------------------------------------------------|
A#|-0---1---X---1---1----1---X---1---0---X---0---0----0---X---|-0---3---X---3---3----3---X---3---1---X---1---1----0---X---|
F#|-2---2---X---2---2----2---X---2---2---X---0---0----0---X---|-0---0---X---0---0----0---X---0---0---X---0---0----0---X---|
C#|-2---2---X---2---2----2---X---2---2---X---2---2----2---X---|-2---2---X---2---2----2---X---2---2---X---2---2----2---X---|
G#|-0---0---X---0---0----0---X---0---0---X---2---2----2---X---|-2---3---X---3---3----3---X---3---3---X---3---3----2---X---|
D#|-----------------------------------------------------------|-----------------------------------------------------------|


D#|-----------------------------------------------------------|--------------------------------------------------------|
A#|-0---1---X---1---1----1---X---1---0---X---0---0----0---X---|-0---3---X---3---3----3---X-----------------------------|
F#|-2---2---X---2---2----2---X---2---2---X---0---0----0---X---|-0---0---X---0---0----0---X---7---5---4---5-----4-------|
C#|-2---2---X---2---2----2---X---2---2---X---2---2----2---X---|-2---2---X---2---2----2---X-------------------------7---|
G#|-0---0---X---0---0----0---X---0---0---X---2---2----2---X---|-2---3---X---3---3----3---X-----------------------------|
D#|-----------------------------------------------------------|--------------------------------------------------------|


D#|-0---0-----0-----3---3-----3-----|-3---3-----3-----0---0-----0-----X---|-0---0----------0--------------------|
A#|-0---1-----1-----3---3-----3-----|-3---3-----3-----0---0-----0-----X---|-0---1-----1----1--------------------|
F#|-2---2-----2-----0---0-----0-----|-0---0-----0-----0---1-----1-----X---|-2---2-----2----2----4---2-----0-----|
C#|-2---2-----2-----2---2-----2-----|-0---0-----0-----2---2-----2-----X---|-2---2-----2----2----0---0-----2-----|
G#|-0---0-----0-----3---3-----3-----|-2---2-----2-----2---2-----2-----X---|-0---0-----0----0----2---2-----2-----|
D#|---------------------------------|-3---3-----------0---0-----0-----X---|---------------------3---3-----------|


D#|---------|--------------------|---------|---------|
A#|---------|--------------------|---------|---------|
F#|---------|-4------4----4------|-4-------|-4-------|
C#|-5-------|-2------2-----------|-2-------|-2-------|
G#|-5-------|-0------0-----------|-0-------|-0-------|
D#|-3-------|--------------------|---------|---------|

    

Nézd meg a videót és ismerd meg a leggyorsabb utat, hogyan tanulhatod meg kedvenc számaid gitáron!