Hogyan játszd el gitáron a Metallica – Welcome Home Sanitarium dalt?

Metallica Welcome Home Sanitarium – GITÁR PRO TAB, KOTTA, AKKORDOK

Kotta típusa: Drums

(Általában egy zeneszám minden kottája: gitár, szólógitár, basszusgitár, ének, zongora, dob stb. megtalálható az oldalon, de mindegyik egy külön bejegyzésben. Ha egy másik hangszer gitártabos kottáját keresed, akkor az oldal alján vagy a keresőben megtalálod. Sokszor a zenekar tagjának a neve lesz a kotta kategóriája.)

        


C|---------|---------|---------|---------|--------59-----|--------59-----|--------59-----|
C|---------|---------|---------|---------|---------------|---------------|---------------|
C|-%-------|-%-------|-%-------|-%-------|-%-------------|-%-------------|-%-------------|
C|-%-------|-%-------|-%-------|-%-------|-%-------------|-%-------------|-%-------------|
C|---------|---------|---------|---------|---------------|---------------|---------------|
C|---------|---------|---------|---------|---------------|---------------|---------------|


C|-59----59---59-59-59---59--59--59--59--59---52---|-44----51-----------|---------|
C|-------------------------------------------------|--------------------|---------|
C|-------------------------------------------------|-------------%------|-%-------|
C|-------------------------------------------------|-------------%------|-%-------|
C|-------------------------------------------------|--------------------|---------|
C|-------------------------------------------------|--------------------|---------|


C|-52-----|-57------|-------------38--------38---|------38--------38---|-36---42---42---36---38---42---42---36---|
C|--------|-36------|-------------57--------57---|------57--------57---|-57-------------42---42-------------42---|
C|--------|-36------|-%------%---------%---------|-%---------%---------|-----------------------------------------|
C|--------|---------|-%------%---------%---------|-%---------%---------|-----------------------------------------|
C|--------|---------|----------------------------|---------------------|-----------------------------------------|
C|--------|---------|----------------------------|---------------------|-----------------------------------------|


C|-36---42---42---36---57---42---42---36---|-42---36---42---36---|-57---42---42---42---57---42---42---42---|
C|-42-------------42---38-------------42---|------42---38--------|-36-------------36---38-------------36---|
C|-----------------------------------------|---------------------|-----------------------------------------|
C|-----------------------------------------|---------------------|-----------------------------------------|
C|-----------------------------------------|---------------------|-----------------------------------------|
C|-----------------------------------------|---------------------|-----------------------------------------|


C|-38----36--38----36--38---45---45--45--45---|-47---47---48--48--48---|-57---42---42---42---57---42---42---42---|
C|-57-----------------------------------------|------------------------|-36-------------36---38-------------36---|
C|--------------------------------------------|------------------------|-----------------------------------------|
C|--------------------------------------------|------------------------|-----------------------------------------|
C|--------------------------------------------|------------------------|-----------------------------------------|
C|--------------------------------------------|------------------------|-----------------------------------------|


C|-42---42---42---42---42---42---42---42---|-42---36---36-38---38-36---|-57---42---42---42---57---42---42---42---|
C|-36-------------36---38-------------36---|------42---42--------------|-36-------------36---38-------------36---|
C|-----------------------------------------|---------------------------|-----------------------------------------|
C|-----------------------------------------|---------------------------|-----------------------------------------|
C|-----------------------------------------|---------------------------|-----------------------------------------|
C|-----------------------------------------|---------------------------|-----------------------------------------|


C|-42---42---42---42---57---42---42---42---|-42---57---57---57---|-36---42---42---36---38---42---42---36---|
C|-36-------------36---38-------------36---|-36---38---38---36---|-57-------------42---42-------------42---|
C|-----------------------------------------|---------------------|-----------------------------------------|
C|-----------------------------------------|---------------------|-----------------------------------------|
C|-----------------------------------------|---------------------|-----------------------------------------|
C|-----------------------------------------|---------------------|-----------------------------------------|


C|-42---42---42---36---57---42---42---36---|-42---36---36-38---38-36---|-57---42---42---42---57---42---42---42---|
C|-36-------------42---38-------------42---|------42---42--------------|-36-------------36---38-------------36---|
C|-----------------------------------------|---------------------------|-----------------------------------------|
C|-----------------------------------------|---------------------------|-----------------------------------------|
C|-----------------------------------------|---------------------------|-----------------------------------------|
C|-----------------------------------------|---------------------------|-----------------------------------------|


C|-38---38---38--38--38--38--38---45---45---45---|-47--47--47---48--48--48---|-36---42---42---36---38---42---42---36---|
C|-57--------------------------------------------|---------------------------|-57-------------42---42-------------42---|
C|-----------------------------------------------|---------------------------|-----------------------------------------|
C|-----------------------------------------------|---------------------------|-----------------------------------------|
C|-----------------------------------------------|---------------------------|-----------------------------------------|
C|-----------------------------------------------|---------------------------|-----------------------------------------|


C|-36---42---42---36---42---42---42---36---|-42---42---42---57---|-36---42---42---36---42---42---42---36---|
C|-42-------------42---38-------------42---|------36---36---38---|-42-------------42---38-------------42---|
C|-----------------------------------------|---------------------|-----------------------------------------|
C|-----------------------------------------|---------------------|-----------------------------------------|
C|-----------------------------------------|---------------------|-----------------------------------------|
C|-----------------------------------------|---------------------|-----------------------------------------|


C|-42---42---42---42---57---57---42---57---|-38---38---38--38--38---|-36---42---42---36---38---42---42---36---|
C|-36-------------36---38---38---36---38---|------------------------|-57-------------42---42-------------42---|
C|-----------------------------------------|------------------------|-----------------------------------------|
C|-----------------------------------------|------------------------|-----------------------------------------|
C|-----------------------------------------|------------------------|-----------------------------------------|
C|-----------------------------------------|------------------------|-----------------------------------------|


C|-36---42---42---36---42---42---42---36---|-42---36---36-38---38-36---|-57---42---42---36---57---42---42---36---|
C|-42-------------42---38-------------42---|------42---42--------------|-36-------------42---38-------------42---|
C|-----------------------------------------|---------------------------|-----------------------------------------|
C|-----------------------------------------|---------------------------|-----------------------------------------|
C|-----------------------------------------|---------------------------|-----------------------------------------|
C|-----------------------------------------|---------------------------|-----------------------------------------|


C|-45---45---45---45---47---47---48---48---|-50---50---43--43--43---|-57---42---42---42---42---38---42---36---|
C|-42---42---42---42---42---42---42---42---|------------------------|-36------------------38---42--------42---|
C|-----------------------------------------|------------------------|-----------------------------------------|
C|-----------------------------------------|------------------------|-----------------------------------------|
C|-----------------------------------------|------------------------|-----------------------------------------|
C|-----------------------------------------|------------------------|-----------------------------------------|


C|-42---42---42---42---38---38---38---38---|-38---36---42---36---|-57---42---42---36---57---57---42---36---|
C|-36-------------36---42---42---42---42---|-42---38---38--------|-36-------------42---38---38--------42---|
C|-------------------------------36--------|------42-------------|-----------------------------------------|
C|-----------------------------------------|---------------------|-----------------------------------------|
C|-----------------------------------------|---------------------|-----------------------------------------|
C|-----------------------------------------|---------------------|-----------------------------------------|


C|-42---42--36--57---42---42---42--36--57---42---|-42---42--36--57---38---|-57---42---57---42---36---36--36--57---42---|
C|-36---36------38-------------36------38--------|-36---36------38--------|-36--------38--------42---42------38--------|
C|-----------------------------------------------|------------------------|--------------------------------------------|
C|-----------------------------------------------|------------------------|--------------------------------------------|
C|-----------------------------------------------|------------------------|--------------------------------------------|
C|-----------------------------------------------|------------------------|--------------------------------------------|


C|-42---42--36--57---42--36--38--38-38-38--38--45--45--45--45--|-57---42---57---42---42---42--36--38---57---|
C|-36---36------38---------------------------------------------|-36--------38--------36---36------42---38---|
C|-------------------------------------------------------------|--------------------------------------------|
C|-------------------------------------------------------------|--------------------------------------------|
C|-------------------------------------------------------------|--------------------------------------------|
C|-------------------------------------------------------------|--------------------------------------------|


C|-48--48--48--48--48--48--48--48--38--38--36---38--38--57---|-36---42---57---42---42---42--36--38---57---|
C|-43--43--43--43--43--43--43--43--43--43--57---43--43--36---|-57--------38-------------36------42---38---|
C|-----------------------------------------------------------|--------------------------------------------|
C|-----------------------------------------------------------|--------------------------------------------|
C|-----------------------------------------------------------|--------------------------------------------|
C|-----------------------------------------------------------|--------------------------------------------|


C|-38---42--36--42--36--38--36--38--38-38-38--38--45--45--45--45--|-57---42---57---42---36---36--36--38---57---|
C|-57---36--------------42------42--------------------------------|-36--------38--------42---42------42---38---|
C|----------------------------------------------------------------|--------------------------------------------|
C|----------------------------------------------------------------|--------------------------------------------|
C|----------------------------------------------------------------|--------------------------------------------|
C|----------------------------------------------------------------|--------------------------------------------|


C|-57----42----42----42----|-36----------38--38--38---38-48--48-48--50---|-57---42---42---36---42---42---42---36---|
C|-38----------------------|-57------------------------------------------|-36-------------42---38-------------42---|
C|-------------------------|-------%-------------------------------------|-----------------------------------------|
C|-------------------------|-------%-------------------------------------|-----------------------------------------|
C|-------------------------|---------------------------------------------|-----------------------------------------|
C|-------------------------|---------------------------------------------|-----------------------------------------|


C|-42---42---42---42---38---42---42---36---|-42---36---36-38---38-36---|-57---42---42---36---42---42---42---36---|
C|-36-------------36---42-------------42---|------42---42--------------|-36-------------42---38-------------42---|
C|-----------------------------------------|---------------------------|-----------------------------------------|
C|-----------------------------------------|---------------------------|-----------------------------------------|
C|-----------------------------------------|---------------------------|-----------------------------------------|
C|-----------------------------------------|---------------------------|-----------------------------------------|


C|-42---42---42---42---38---42---42---36---|-42---36---57---57---|-36---42---42---36---57---42---42---36---|
C|-36-------------36---42-------------42---|------42---38---38---|-42-------------42---38-------------42---|
C|-----------------------------------------|---------------------|-----------------------------------------|
C|-----------------------------------------|---------------------|-----------------------------------------|
C|-----------------------------------------|---------------------|-----------------------------------------|
C|-----------------------------------------|---------------------|-----------------------------------------|


C|-42---42---42---36---38---42---42---36---|-42---42---42---42---|-42---42---42---36---57---57---42---36---|
C|-36-------------42---42-------------42---|------36---36--------|-36-------------42---38---38--------42---|
C|-----------------------------------------|---------------------|-----------------------------------------|
C|-----------------------------------------|---------------------|-----------------------------------------|
C|-----------------------------------------|---------------------|-----------------------------------------|
C|-----------------------------------------|---------------------|-----------------------------------------|


C|-42---57---57---42---38--38--38--38--45---45---|-47--47--47---48--48--48---|-36---42---42---36---38---42---42---36---|
C|-35---38---38----------------------------------|---------------------------|-57-------------42---42-------------42---|
C|-----------------------------------------------|---------------------------|-----------------------------------------|
C|-----------------------------------------------|---------------------------|-----------------------------------------|
C|-----------------------------------------------|---------------------------|-----------------------------------------|
C|-----------------------------------------------|---------------------------|-----------------------------------------|


C|-36---42---42---36---42---42---42---36---|-42---36---36-38---38-36---|-57---42---42---36---57---42---42---36---|
C|-42-------------42---38-------------42---|------42---42--------------|-36-------------42---38-------------42---|
C|-----------------------------------------|---------------------------|-----------------------------------------|
C|-----------------------------------------|---------------------------|-----------------------------------------|
C|-----------------------------------------|---------------------------|-----------------------------------------|
C|-----------------------------------------|---------------------------|-----------------------------------------|


C|-42---42---42---42---57---57---36---57---|-38---36---38--38--38---|-36---42---42---36---38---42---42---36---|
C|-36-------------36---38---38--------38---|-57---------------------|-57-------------42---42-------------42---|
C|-----------------------------------------|------------------------|-----------------------------------------|
C|-----------------------------------------|------------------------|-----------------------------------------|
C|-----------------------------------------|------------------------|-----------------------------------------|
C|-----------------------------------------|------------------------|-----------------------------------------|


C|-42---42---42---42---57---42---42---42---|-42---36---38---36---|-57---42---42---36---57---42---42---36---|
C|-36-------------36---38-------------36---|------42---42--------|-36-------------42---38-------------42---|
C|-----------------------------------------|---------------------|-----------------------------------------|
C|-----------------------------------------|---------------------|-----------------------------------------|
C|-----------------------------------------|---------------------|-----------------------------------------|
C|-----------------------------------------|---------------------|-----------------------------------------|


C|-45---45---45---45---47---47---48---48---|-43--43--43--43--43--43--43--43--|-57---42---42---42---42---38---42---36---|
C|-42---42---42---42---42---42---42---42---|---------------------------------|-36------------------38---42--------42---|
C|-----------------------------------------|---------------------------------|-----------------------------------------|
C|-----------------------------------------|---------------------------------|-----------------------------------------|
C|-----------------------------------------|---------------------------------|-----------------------------------------|
C|-----------------------------------------|---------------------------------|-----------------------------------------|


C|-42---42---42---42---38---38---42---38---|-36---38---38---36---|-57---42---42---36---57---57---42---36---|
C|-36-------------36---42---42---36---42---|-42---42---42---42---|-36-------------42---38---38--------42---|
C|-----------------------------------------|---------------------|-----------------------------------------|
C|-----------------------------------------|---------------------|-----------------------------------------|
C|-----------------------------------------|---------------------|-----------------------------------------|
C|-----------------------------------------|---------------------|-----------------------------------------|


C|-42---42--36--57---42---42---42--36--57---42---|-42---42--36--57---42---|-57---42---57---42---36---36--36--57---42---|
C|-36---36------38-------------36------38--------|-36---36------38---38---|-36--------38--------42---42------38--------|
C|-----------------------------------------------|------------------------|--------------------------------------------|
C|-----------------------------------------------|------------------------|--------------------------------------------|
C|-----------------------------------------------|------------------------|--------------------------------------------|
C|-----------------------------------------------|------------------------|--------------------------------------------|


C|-42---42--36--57---42--36--38--38-38-38--38--45--45--45--45--|-57---42---57---42---42---42--36--38---57---|
C|-36---36------38---------------------------------------------|-36--------38--------36---36------42---38---|
C|-------------------------------------------------------------|--------------------------------------------|
C|-------------------------------------------------------------|--------------------------------------------|
C|-------------------------------------------------------------|--------------------------------------------|
C|-------------------------------------------------------------|--------------------------------------------|


C|-48--48--48--48--48--48--48--48--38--38--36---38--38--57---|-36---42---57---42---42---42--36--38---57---|
C|-43--43--43--43--43--43--43--43--43--43--57---43--43--36---|-57--------38-------------36------42---38---|
C|-----------------------------------------------------------|--------------------------------------------|
C|-----------------------------------------------------------|--------------------------------------------|
C|-----------------------------------------------------------|--------------------------------------------|
C|-----------------------------------------------------------|--------------------------------------------|


C|-38---42--36--42--36--38--36--38--38-38-38--38--45--45--45--45--|-57---42---57---42---36---36--36--38---57---|
C|-57---36--------------42------42--------------------------------|-36--------38--------42---42------42---38---|
C|----------------------------------------------------------------|--------------------------------------------|
C|----------------------------------------------------------------|--------------------------------------------|
C|----------------------------------------------------------------|--------------------------------------------|
C|----------------------------------------------------------------|--------------------------------------------|


C|-38---42--36--38--36--42--36--42---42--36--38---57---|-38--38-38-38--38--45--45--45--45--|
C|-57-----------42--------------38-----------42---38---|-----------------------------------|
C|-----------------------------------------------------|-----------------------------------|
C|-----------------------------------------------------|-----------------------------------|
C|-----------------------------------------------------|-----------------------------------|
C|-----------------------------------------------------|-----------------------------------|


C|-36---42---57---42---36---36--36--38---57---|-38---42--36--38--36--42--36--38---42--36--38---57---|
C|-57--------38--------42---42------42---38---|-57-----------57--------------42-----------42---38---|
C|--------------------------------------------|-----------------------------------------------------|
C|--------------------------------------------|-----------------------------------------------------|
C|--------------------------------------------|-----------------------------------------------------|
C|--------------------------------------------|-----------------------------------------------------|


C|-38--38-38-38--38--45--45--45--45--|-36----42----36---36---38---36---|-42---36---38----36---36---38----|
C|-----------------------------------|-57----38----42--------42--------|-----------42----42--------42----|
C|-----------------------------------|---------------------------------|---------------------------------|
C|-----------------------------------|---------------------------------|---------------------------------|
C|-----------------------------------|---------------------------------|---------------------------------|
C|-----------------------------------|---------------------------------|---------------------------------|


C|-42----38----36---36---38----|-38--38--38--38--38---38---45---45---38---38---|-36----42----36---36---38----|
C|-36----42----42--------42----|-----------------------------------------------|-57----38----42--------42----|
C|-----------------------------|-----------------------------------------------|-----------------------------|
C|-----------------------------|-----------------------------------------------|-----------------------------|
C|-----------------------------|-----------------------------------------------|-----------------------------|
C|-----------------------------|-----------------------------------------------|-----------------------------|


C|-42---36---38----42---36---38----|-42---36---38----42---36---38----|-42---36---38----42---36---57----|
C|-36--------42----36--------42----|-36--------42----36--------42----|-36--------42----36--------38----|
C|---------------------------------|---------------------------------|---------------------------------|
C|---------------------------------|---------------------------------|---------------------------------|
C|---------------------------------|---------------------------------|---------------------------------|
C|---------------------------------|---------------------------------|---------------------------------|


C|-36---36---38----36---36---38---36---|-42---36---38----42---36---57----|-36---36---38---36---42---36---38---36---|
C|-42--------42----42--------42--------|-----------42----36--------38----|-42--------42------------------42--------|
C|-------------------------------------|---------------------------------|-----------------------------------------|
C|-------------------------------------|---------------------------------|-----------------------------------------|
C|-------------------------------------|---------------------------------|-----------------------------------------|
C|-------------------------------------|---------------------------------|-----------------------------------------|


C|-42---36---38----57----59----|-36---36---38---36---42---36---38---36---|-42---36---38----42---38---36----|
C|-----------42----38----38----|-42--------42------------------42--------|-----------42--------------57----|
C|-----------------------------|-----------------------------------------|---------------------------38----|
C|-----------------------------|-----------------------------------------|---------------------------------|
C|-----------------------------|-----------------------------------------|---------------------------------|
C|-----------------------------|-----------------------------------------|---------------------------------|


C|-36----42----36---36---38---36---|-42---36---38----57----57----|-36---36---38---36---42---36---38----|
C|-57----38----42--------42--------|-----------42----38----38----|-42--------42------------------42----|
C|---------------------------------|-----------------------------|-------------------------------------|
C|---------------------------------|-----------------------------|-------------------------------------|
C|---------------------------------|-----------------------------|-------------------------------------|
C|---------------------------------|-----------------------------|-------------------------------------|


C|-42---38---38----38---38---38---38---|-36----38----36---36---38---36---|-42---36---38----57---36---57----|
C|-------------------------------------|-57----42----42--------42--------|-----------42----38--------38----|
C|-------------------------------------|---------------------------------|---------------------------------|
C|-------------------------------------|---------------------------------|---------------------------------|
C|-------------------------------------|---------------------------------|---------------------------------|
C|-------------------------------------|---------------------------------|---------------------------------|


C|-42---36---38---36---42---36---38----|-36----57----36---36---38----|-42---36---38---36---42---36---38---36---|
C|-36--------42------------------42----|-42----36----42--------57----|-36--------42------------------42--------|
C|-------------------------------------|-------38--------------------|-----------------------------------------|
C|-------------------------------------|-----------------------------|-----------------------------------------|
C|-------------------------------------|-----------------------------|-----------------------------------------|
C|-------------------------------------|-----------------------------|-----------------------------------------|


C|-42---36---38----57----57----|-36---42--36--42--36--38---36---42--36--38--36----|
C|-----------42----38----36----|-42-------------------42---42-----------42--57----|
C|-----------------------38----|--------------------------------------------------|
C|-----------------------------|--------------------------------------------------|
C|-----------------------------|--------------------------------------------------|
C|-----------------------------|--------------------------------------------------|


C|-36---36--36--42--36--38---36---42--36--38--36----|-36---36--36--42---38---36---42--36--38--36----|
C|-42---42--------------42---42-----------42--57----|-42---42-----------42---42-----------42--57----|
C|--------------------------------------------------|-----------------------------------------------|
C|--------------------------------------------------|-----------------------------------------------|
C|--------------------------------------------------|-----------------------------------------------|
C|--------------------------------------------------|-----------------------------------------------|


C|-36---42--36--57---42--36--38---42--36--57---57---|-57---42--36--38---42--36--42---42--36--38--57----|
C|-42-----------38-----------57-----------38---38---|-36-----------42-----------36-----------42--36----|
C|--------------------------------------------------|--------------------------------------------------|
C|--------------------------------------------------|--------------------------------------------------|
C|--------------------------------------------------|--------------------------------------------------|
C|--------------------------------------------------|--------------------------------------------------|


C|-36---36--36--42--36--38---36---42--36--38--36----|-36---36--36--57---38---36---42--36--38--36----|
C|-42---42--------------42---42-----------42--57----|-42---42-----------42---42-----------42--57----|
C|--------------------------------------------------|-----------------------------------------------|
C|--------------------------------------------------|-----------------------------------------------|
C|--------------------------------------------------|-----------------------------------------------|
C|--------------------------------------------------|-----------------------------------------------|


C|-36---36--36--57---42--36--38---42--36--57---57---|-38--38--38--38--38--38--38--38--38--38--38--38--38--38--38--38--|
C|-42---42------38-----------57-----------38---38---|-----------------------------------------------------------------|
C|--------------------------------------------------|-----------------------------------------------------------------|
C|--------------------------------------------------|-----------------------------------------------------------------|
C|--------------------------------------------------|-----------------------------------------------------------------|
C|--------------------------------------------------|-----------------------------------------------------------------|


C|-36----42----36---36---38---36---|-42---36---38----42---36---38----|-36---36---38---36---42---36---38---36---|
C|-57----38----42--------42--------|-----------42----36--------42----|-42--------42------------------42--------|
C|---------------------------------|---------------------------------|-----------------------------------------|
C|---------------------------------|---------------------------------|-----------------------------------------|
C|---------------------------------|---------------------------------|-----------------------------------------|
C|---------------------------------|---------------------------------|-----------------------------------------|


C|-42---36---38----57----57----|-36---36---38----42---36---38----|-42---38---57----36---38---38----|
C|-----------42----38----38----|-42--------42--------------42----|-----------36----57--------57----|
C|-----------------------------|---------------------------------|---------------------------36----|
C|-----------------------------|---------------------------------|---------------------------------|
C|-----------------------------|---------------------------------|---------------------------------|
C|-----------------------------|---------------------------------|---------------------------------|


C|-36----42----36---36---38---36---|-42---36---38----57----57----|-36---36---38---36---42---36---38----|
C|-57----38----42--------42--------|-----------42----38----38----|-42--------42------------------42----|
C|---------------------------------|-----------------------------|-------------------------------------|
C|---------------------------------|-----------------------------|-------------------------------------|
C|---------------------------------|-----------------------------|-------------------------------------|
C|---------------------------------|-----------------------------|-------------------------------------|


C|-38---36--35--36--38---36--35--36--38---36--35--36--57----|-36----38----36---36---38---36---|
C|----------------------------------------------------38----|-57----42----42--------42--------|
C|----------------------------------------------------------|---------------------------------|
C|----------------------------------------------------------|---------------------------------|
C|----------------------------------------------------------|---------------------------------|
C|----------------------------------------------------------|---------------------------------|


C|-42---42--36--36-38----36---36---57----|-42---36---38----42---36---38---36---|-42---36---38----42---36---57----|
C|-----------------42----42--------38----|-36--------57----36--------42--------|-----------42----36--------38----|
C|---------------------------------------|-------------------------------------|---------------------------------|
C|---------------------------------------|-------------------------------------|---------------------------------|
C|---------------------------------------|-------------------------------------|---------------------------------|
C|---------------------------------------|-------------------------------------|---------------------------------|


C|-42---36---38---36---42---36---38---36---|-42---36---57----42---36---38----|-48--47---48--57----57----------|
C|-36--------42------------------42--------|-----------38----36--------42----|-47--48---47--36----36----------|
C|-----------------------------------------|---------------------------------|--------------------------%-----|
C|-----------------------------------------|---------------------------------|--------------------------%-----|
C|-----------------------------------------|---------------------------------|--------------------------------|
C|-----------------------------------------|---------------------------------|--------------------------------|


C|-48--47---48--57----57----------|-47--47---47--36----57---42--36--38--36--42---|-36---42--36--38---42---36---42--36--38--36--42---|
C|-47--48---47--36----36----------|-48--48---48--57----36-----------42-----------|-42-----------42--------42-----------42-----------|
C|--------------------------%-----|----------------------------------------------|--------------------------------------------------|
C|--------------------------%-----|----------------------------------------------|--------------------------------------------------|
C|--------------------------------|----------------------------------------------|--------------------------------------------------|
C|--------------------------------|----------------------------------------------|--------------------------------------------------|


C|-42---42--36--38---38---42---42--36--38---38---|-36---42--36--57---42---36---42--36--38--36--42---|
C|-36-----------42---42---36-----------57---57---|-42-----------38--------42-----------42-----------|
C|-----------------------------------------------|--------------------------------------------------|
C|-----------------------------------------------|--------------------------------------------------|
C|-----------------------------------------------|--------------------------------------------------|
C|-----------------------------------------------|--------------------------------------------------|


C|-36---42--36--38--38-35-36--35--35---35--35--57---57---|-36---42--36--38---42---36---42--36--38---42---|
C|-42------------------------------------------38---38---|-42-----------42--------42-----------42--------|
C|-------------------------------------------------------|-----------------------------------------------|
C|-------------------------------------------------------|-----------------------------------------------|
C|-------------------------------------------------------|-----------------------------------------------|
C|-------------------------------------------------------|-----------------------------------------------|


C|-42---42--36--38---57---57---42--36--42--36--42---|-42---42--36--38---38---42---42--36--38---38---|
C|-36-----------42---38---36-----------38-----------|-36-----------42---42---36-----------42---42---|
C|--------------------------------------------------|-----------------------------------------------|
C|--------------------------------------------------|-----------------------------------------------|
C|--------------------------------------------------|-----------------------------------------------|
C|--------------------------------------------------|-----------------------------------------------|


C|-42--38--38--38--38--38--38--38--57---38--36--42--36--38--36--|-42--36--38---36--36--38---36---38--36--42--36--38--36--|
C|---------------------------------36---42--------------42------|---------42---42------42---42---42--------------42------|
C|--------------------------------------------------------------|--------------------------------------------------------|
C|--------------------------------------------------------------|--------------------------------------------------------|
C|--------------------------------------------------------------|--------------------------------------------------------|
C|--------------------------------------------------------------|--------------------------------------------------------|


C|-42--36--38---42--36--57---42---57--36--42--36--38---|-36--36--57---36--36--57---36--36--38---36--36--38---|
C|---------57---36------38---36---38--------------57---|-42------38---42------38---42------42---42------42---|
C|-----------------------------------------------------|-----------------------------------------------------|
C|-----------------------------------------------------|-----------------------------------------------------|
C|-----------------------------------------------------|-----------------------------------------------------|
C|-----------------------------------------------------|-----------------------------------------------------|


C|-42--38--38--38--38--38--36-35-36--36---38--36------36--57--36--|-42--36--38---36--36--38---36---38--36--42--36--57---|
C|----------------------------------------57--------------38------|---------42---42------42---42---42--------------38---|
C|------------------------------------------------%---------------|-----------------------------------------------------|
C|------------------------------------------------%---------------|-----------------------------------------------------|
C|----------------------------------------------------------------|-----------------------------------------------------|
C|----------------------------------------------------------------|-----------------------------------------------------|


C|-42--36--57---42--36--57---57---38--36--42--36--38--36--|-42--36--57---42--36--57---42--36--38--36--42--36--38---|
C|-36------38---36------38---36---42--------------42------|---------38---36------38---36------42--------------42---|
C|--------------------------------------------------------|--------------------------------------------------------|
C|--------------------------------------------------------|--------------------------------------------------------|
C|--------------------------------------------------------|--------------------------------------------------------|
C|--------------------------------------------------------|--------------------------------------------------------|


C|-42--38--38--38--38--38--38--38--36--35--36--35--36--35--36--35--|-42--35--38--35--42--35--38--35--42--35--38--35--42--35--38--35--|
C|-----------------------------------------------------------------|-36------42------36------42------36------42------36------42------|
C|-----------------------------------------------------------------|---------36--------------36--------------36--------------36------|
C|-----------------------------------------------------------------|-----------------------------------------------------------------|
C|-----------------------------------------------------------------|-----------------------------------------------------------------|
C|-----------------------------------------------------------------|-----------------------------------------------------------------|


C|-42--35--57--35--42--35--57--35--42--35--38--35--42--35--38--35--|-42--35--57--35--42--35--57--35--42--35--42--35--42--38--38--35--|
C|-36------38------36------38------36------42------36------42------|-36------38------36------38------36------36------36--35--36------|
C|---------36--------------36--------------36--------------36------|---------36--------------36--------------------------------------|
C|-----------------------------------------------------------------|-----------------------------------------------------------------|
C|-----------------------------------------------------------------|-----------------------------------------------------------------|
C|-----------------------------------------------------------------|-----------------------------------------------------------------|


C|-38--38--38--38--38--38--38--38--57--35--38--35--42--35--38--35--|-42--35--38--35--42--35--38--35--42--35--38--35--42--35--57--35--|
C|-36--35--36--35--36--35--36--35--36------42------36------42------|-36------42------36------42------36------42------36------38------|
C|-----------------------------------------36--------------36------|---------36--------------36--------------36--------------36------|
C|-----------------------------------------------------------------|-----------------------------------------------------------------|
C|-----------------------------------------------------------------|-----------------------------------------------------------------|
C|-----------------------------------------------------------------|-----------------------------------------------------------------|


C|-42--35--57--35--42--35--57--35--42--35--57--35--42--35--57--35--|-42--35--57--35--42--35--57--35--42--35--57--35--42--35--57--35--|
C|-36------38------36------38------36------38------36------38------|-36------38------36------38------36------38------36------38------|
C|---------36--------------36--------------36--------------36------|---------36--------------36--------------36--------------36------|
C|-----------------------------------------------------------------|-----------------------------------------------------------------|
C|-----------------------------------------------------------------|-----------------------------------------------------------------|
C|-----------------------------------------------------------------|-----------------------------------------------------------------|


C|-47--48---48--57-----------|-47--48---48--57-----------|-47--48---48--57-----------|
C|-48--47---47--36-----------|-48--47---47--36-----------|-48--47---47--36-----------|
C|--------------------%------|--------------------%------|--------------------%------|
C|--------------------%------|--------------------%------|--------------------%------|
C|---------------------------|---------------------------|---------------------------|
C|---------------------------|---------------------------|---------------------------|


C|-47--48---48--57-----------|-47--48---48--57----36--36-36---36--36-36----|-47--48---48--57----36--36-36---36--36-36----|
C|-48--47---47--36-----------|-48--47---47--36----57--57-57---57--57-57----|-48--47---47--36----57--57-57---57--57-57----|
C|--------------------%------|---------------------------------------------|---------------------------------------------|
C|--------------------%------|---------------------------------------------|---------------------------------------------|
C|---------------------------|---------------------------------------------|---------------------------------------------|
C|---------------------------|---------------------------------------------|---------------------------------------------|


C|-47--48---48--57----36--36-36---36--36-36----|-47--48---48--57----36--36-36---36--36-36----|
C|-48--47---47--36----57--57-57---57--57-57----|-48--47---47--36----57--57-57---57--57-57----|
C|---------------------------------------------|---------------------------------------------|
C|---------------------------------------------|---------------------------------------------|
C|---------------------------------------------|---------------------------------------------|
C|---------------------------------------------|---------------------------------------------|


C|-36--36-36---36--36-36----36--36-36---36--36-36----|-36----36----36----36----|-57-57-57-57-57-57-57-57-57-57-57-57-57-57-57-57-57-57-57-57-57-57-57-57-57-57-57-57-57-57-57-57-57-57-57-57-57-57-57-57-57-57-57-57-57-57-57-57-|
C|-57--57-57---57--57-57----57--57-57---57--57-57----|-57----57----57----57----|-36-------36-------36-------36-------36-------36-------36-------36-------36-------36-------36-------36-------36-------36-------36-------36-------|
C|---------------------------------------------------|-------------------------|-------------------------------------------------------------------------------------------------------------------------------------------------|
C|---------------------------------------------------|-------------------------|-------------------------------------------------------------------------------------------------------------------------------------------------|
C|---------------------------------------------------|-------------------------|-------------------------------------------------------------------------------------------------------------------------------------------------|
C|---------------------------------------------------|-------------------------|-------------------------------------------------------------------------------------------------------------------------------------------------|


C|-38-35-36-35-38-35-36-35-38-35-36-35-38-35-36-35-38-35-36-35-38-35-36-35-36-35-36-35-36---|
C|-36----------36----------36----------36----------36----------36----------38---------------|
C|------------------------------------------------------------------------------------------|
C|------------------------------------------------------------------------------------------|
C|------------------------------------------------------------------------------------------|
C|------------------------------------------------------------------------------------------|


C|-36---38-38-38-38-38-38-38-38-38-38-38-38-38-45-45-45-47-47-47-47-47-36---36---|-36---36---36---36---36----38------38--36--35--36--|
C|---------------------------------------------------------------------57--------|-57--------57--------57----------------------------|
C|-------------------------------------------------------------------------------|-------------------------------%-------------------|
C|-------------------------------------------------------------------------------|-------------------------------%-------------------|
C|-------------------------------------------------------------------------------|---------------------------------------------------|
C|-------------------------------------------------------------------------------|---------------------------------------------------|


C|-38--38--38--36--35--36--38--38--38--36--35--36--38----57----|---------|---------|
C|-------------------------------------------------------36----|---------|---------|
C|-------------------------------------------------------------|-%-------|-%-------|
C|-------------------------------------------------------------|-%-------|-%-------|
C|-------------------------------------------------------------|---------|---------|
C|-------------------------------------------------------------|---------|---------|

    

Nézd meg a videót és ismerd meg a leggyorsabb utat, hogyan tanulhatod meg kedvenc számaid gitáron!