Hogyan játszd el gitáron a Minibosses – Kraid dalt?

Minibosses Kraid – GITÁR PRO TAB, KOTTA, AKKORDOK

Kotta típusa: Track 2

(Általában egy zeneszám minden kottája: gitár, szólógitár, basszusgitár, ének, zongora, dob stb. megtalálható az oldalon, de mindegyik egy külön bejegyzésben. Ha egy másik hangszer gitártabos kottáját keresed, akkor az oldal alján vagy a keresőben megtalálod. Sokszor a zenekar tagjának a neve lesz a kotta kategóriája.)

        


G|--------------|--------------|--------------|--------------|--------------|--------------|
D|-------15-----|-------15-----|-------15-----|-------15-----|-------11-----|-------11-----|
A|--------------|--------------|--------------|--------------|--------------|--------------|
E|-13-----------|-13-----------|-13-----------|-13-----------|-9------------|-9------------|


G|--------------|--------------|-------------------|-------------------|-------------------|
D|-------13-----|-------13-----|-------------15----|-------------17----|-------------13----|
A|--------------|--------------|-------15----------|-------17----------|-------13----------|
E|-11-----------|-11-----------|-13----------------|-15----------------|-11----------------|


G|-------------------|--------------|--------------|--------------|--------------|--------------|
D|-------------10----|--------------|--------------|--------------|--------------|--------------|
A|-------10----------|--------15----|-16-----15----|--------11----|-13-----15----|--------15----|
E|-8-----------------|-13-----------|--------------|-9------------|--------------|-13-----------|


G|--------------|--------------|--------------|---------|---------|
D|--------------|--------------|--------------|-%-------|-%-------|
A|-16-----15----|--------11----|-13-----15----|-%-------|-%-------|
E|--------------|-9------------|--------------|---------|---------|

    

Nézd meg a videót és ismerd meg a leggyorsabb utat, hogyan tanulhatod meg kedvenc számaid gitáron!