Hogyan játszd el gitáron a Motley Crue – Live Wire dalt?

Motley Crue Live Wire – GITÁR PRO TAB, KOTTA, AKKORDOK

Kotta típusa: Mick Mars

(Általában egy zeneszám minden kottája: gitár, szólógitár, basszusgitár, ének, zongora, dob stb. megtalálható az oldalon, de mindegyik egy külön bejegyzésben. Ha egy másik hangszer gitártabos kottáját keresed, akkor az oldal alján vagy a keresőben megtalálod. Sokszor a zenekar tagjának a neve lesz a kotta kategóriája.)

        


E|-------------------|-------------------------------------|-------------------------------------|
B|-------------------|-------------------------------------|-------------------------------------|
G|-%-------%----2----|-2------------------------------2----|-2------------------------------2----|
D|-%-------%----2----|-2-----4----4----4----4----4----2----|-2-----4----4----4----4----4----2----|
A|--------------0----|-0-----4----4----4----4----4----0----|-0-----4----4----4----4----4----0----|
E|-------------------|-------2----2----2----2----2---------|-------2----2----2----2----2---------|


E|-----------------------------------------|--------------------------------------------------|
B|-----------------------------------------|-----------0-------0-------0----0----0------------|
G|-2---------------------------------------|-2----2----0--%----0--%--------------0--%----2----|
D|-2----4----4----4----4----4----4----4----|-2----2----0--%----0--%----4----4----0--%----2----|
A|-0----4----4----4----4----4----4----4----|-0----0--------------------2----2------------0----|
E|------2----2----2----2----2----2----2----|--------------------------------------------------|


E|-------------------------------------|-------------------------------------|-------------------------------------|
B|-------------------------------------|-------------------------------------|-------------------------------------|
G|-2------------------------------2----|-2------------------------------2----|-2-----------------------------------|
D|-2-----4----4----4----4----4----2----|-2-----4----4----4----4----4----2----|-2-----4----4----4----4----4----4----|
A|-0-----4----4----4----4----4----0----|-0-----4----4----4----4----4----0----|-0-----4----4----4----4----4----4----|
E|-------2----2----2----2----2---------|-------2----2----2----2----2---------|-------2----2----2----2----2----2----|


E|-7----2----0---------0----0----4---------|-------------------------------------|-------------------------------------|
B|----------------0------------------------|-------------------------------------|-------------------------------------|
G|------------------------------------2----|-2------------------------------2----|-2------------------------------2----|
D|------------------------------------2----|-2-----4----4----4----4----4----2----|-2-----4----4----4----4----4----2----|
A|------------------------------------0----|-0-----4----4----4----4----4----0----|-0-----4----4----4----4----4----0----|
E|-----------------------------------------|-------2----2----2----2----2---------|-------2----2----2----2----2---------|


E|-----------------------------------------|--------------------------------------------------|
B|-----------------------------------------|-----------0-------0-------0----0----0------------|
G|-2---------------------------------------|-2----2----0--%----0--%--------------0--%----2----|
D|-2----4----4----4----4----4----4----4----|-2----2----0--%----0--%----4----4----0--%----2----|
A|-0----4----4----4----4----4----4----4----|-0----0--------------------2----2------------0----|
E|------2----2----2----2----2----2----2----|--------------------------------------------------|


E|-------------------------------------|-------------------------------------|-------------------------------------|
B|-------------------------------------|-------------------------------------|-------------------------------------|
G|-2------------------------------2----|-2------------------------------2----|-2------------------------------%----|
D|-2-----4----4----4----4----4----2----|-2-----4----4----4----4----4----2----|-2-----4----4----4----4----4----%----|
A|-0-----4----4----4----4----4----0----|-0-----4----4----4----4----4----0----|-0-----4----4----4----4----4---------|
E|-------2----2----2----2----2---------|-------2----2----2----2----2---------|-------2----2----2----2----2---------|


E|-----------------------------------------|-------------------------------------|-------------------------------------|
B|-----------------------------------------|-------------------------------------|-------------------------------------|
G|-2----------------------------------2----|-2------------------------------2----|-2------------------------------2----|
D|------4----2------------------------2----|-2-----4----4----4----4----4----2----|-2-----4----4----4----4----4----2----|
A|----------------4----3----2----0----0----|-0-----4----4----4----4----4----0----|-0-----4----4----4----4----4----0----|
E|-----------------------------------------|-------2----2----2----2----2---------|-------2----2----2----2----2---------|


E|-------------------------------------|--------------------------------------------------|
B|-------------------------------------|------0-------0-------0----0----------------------|
G|-2-----------------------------------|-4----0--%----0--%---------0--%--------------2----|
D|-2-----4----4----4----4----4----4----|-4----0--%----0--%----4----0--%----4----6----2----|
A|-0-----4----4----4----4----4----4----|-2--------------------2------------4----6----0----|
E|-------2----2----2----2----2----2----|-----------------------------------2----4---------|


E|-------------------------------------|-------------------------------------|-------------------------------------|
B|-------------------------------------|-------------------------------------|-------------------------------------|
G|-2------------------------------2----|-2------------------------------2----|-2-----------------------------------|
D|-2-----4----4----4----4----4----2----|-2-----4----4----4----4----4----2----|-2-----4----4----4----4----4----4----|
A|-0-----4----4----4----4----4----0----|-0-----4----4----4----4----4----0----|-0-----4----4----4----4----4----4----|
E|-------2----2----2----2----2---------|-------2----2----2----2----2---------|-------2----2----2----2----2----2----|


E|--------------------------------------------------|-------------------------------------|
B|------0-------0-------0----0----------------------|-------------------------------------|
G|-4----0--%----0--%---------0--%--------------2----|-2------------------------------2----|
D|-4----0--%----0--%----4----0--%----4----6----2----|-2-----4----4----4----4----4----2----|
A|-2--------------------2------------4----6----0----|-0-----4----4----4----4----4----0----|
E|-----------------------------------2----4---------|-------2----2----2----2----2---------|


E|-------------------------------------|-------------------------------------|----------------------------|
B|-------------------------------------|-------------------------------------|-------0--------------------|
G|-2------------------------------2----|-2-----------------------------------|-4-----0--%----4------------|
D|-2-----4----4----4----4----4----2----|-2-----4----4----4----4----4----4----|-4-----0--%----4------6-----|
A|-0-----4----4----4----4----4----0----|-0-----4----4----4----4----4----4----|-2-------------2------4-----|
E|-------2----2----2----2----2---------|-------2----2----2----2----2----2----|----------------------------|


E|---------|---------------------------------|---------|-------------------------------------|
B|---------|---------------------------------|-0-------|-0----0------------------------------|
G|-2-------|-2----2--------------------------|---------|-------------------------------------|
D|-0-------|------0--------------------------|-2-------|-0----2------------------------------|
A|---------|-4---------2----0-----2----------|---------|-----------4----2-----4--------------|
E|---------|---------------------------4-----|---------|---------------------------0----1----|


E|---------------|---------|---------|---------|-------------------------------------|
B|---------------|---------|---------|---------|---------------------0---------------|
G|-------%-------|-%-------|-%-------|-%-------|-2----2----2----%----1-----2----2----|
D|-------%-------|-%-------|-%-------|-%-------|-4----4----4----%----2-----4----4----|
A|---------------|---------|---------|---------|-4----4----4---------------4----4----|
E|-2-------------|---------|---------|---------|-2----2----2-------------------------|


E|---------------------------------|-------------------------------------|---------------------------------|
B|----------------0----------------|---------------------0---------------|----------------0----------------|
G|-2----2----%----1----------------|-2----2----2----%----1-----2----2----|-2----2----%----1----------------|
D|-4----4----%----2------4----4----|-4----4----4----%----2-----4----4----|-4----4----%----2------4----4----|
A|-5----5----------------4----4----|-4----4----4---------------4----4----|-5----5----------------4----4----|
E|-----------------------2----2----|-2----2----2-------------------------|-----------------------2----2----|


E|-------------------------------------|---------------------------------|-------------------------------------|
B|---------------------0---------------|----------------0----------------|---------------------0---------------|
G|-2----2----2----%----1---------------|-2----2----%----1----------------|-2----2----2----%----1---------------|
D|-4----4----4----%----2-----4----4----|-4----4----%----2------4----4----|-4----4----4----%----2-----4----4----|
A|-4----4----4---------------4----4----|-5----5----------------4----4----|-4----4----4---------------4----4----|
E|-2----2----2---------------2----2----|-----------------------2----2----|-2----2----2---------------2----2----|


E|---------------------------------|-------------------------------------|---------------------------------|
B|----------------0----------------|---------------------0---------------|----------------0----------------|
G|-2----2----%----1----------------|-2----2----2----%----1-----2----2----|-2----2----%----1----------------|
D|-4----4----%----2------4----4----|-4----4----4----%----2-----4----4----|-4----4----%----2------4----4----|
A|-5----5----------------4----4----|-4----4----4---------------4----4----|-5----5----------------4----4----|
E|-----------------------2----2----|-2----2----2-------------------------|-----------------------2----2----|


E|-------------------------------------|---------------------------------|-------------------------------------|
B|---------------------0---------------|----------------0----------------|---------------------0---------------|
G|-2----2----2----%----1-----2----2----|-2----2----%----1----------------|-2----2----2----%----1---------------|
D|-4----4----4----%----2-----4----4----|-4----4----%----2------4----4----|-4----4----4----%----2-----4----4----|
A|-4----4----4---------------4----4----|-5----5----------------4----4----|-4----4----4---------------4----4----|
E|-2----2----2-------------------------|-----------------------2----2----|-2----2----2---------------2----2----|


E|---------------------------------|-------------------------------------|-------------------|
B|----------------0----------------|---------------------0---------------|-------------------|
G|-2----2----%----1----------------|-2----2----2----%----1---------------|-%-------%----2----|
D|-4----4----%----2------4----4----|-4----4----4----%----2-----4----4----|-%-------%----2----|
A|-5----5----------------4----4----|-4----4----4---------------4----4----|--------------0----|
E|-----------------------2----2----|-2----2----2---------------2----2----|-------------------|


E|-------------------------------------|-------------------------------------|---------------------------------|
B|-------------------------------------|-------------------------------------|---------------------------------|
G|-2------------------------------2----|-2------------------------------2----|-2-------------------------------|
D|-2-----4----4----4----4----4----2----|-2-----4----4----4----4----4----2----|-2-----4----4----4----4----4-----|
A|-0-----4----4----4----4----4----0----|-0-----4----4----4----4----4----0----|-0-----4----4----4----4----4-----|
E|-------2----2----2----2----2---------|-------2----2----2----2----2---------|-------2----2----2----2----2-----|


E|-------------------------------------|-------------------------------------|-------------------------------------|
B|-----------------0----0--------------|-------------------------------------|-------------------------------------|
G|-2----2----%---------------%----2----|-2------------------------------2----|-2------------------------------2----|
D|-2----2----%-----4----4----%----2----|-2-----4----4----4----4----4----2----|-2-----4----4----4----4----4----2----|
A|-0----0----------2----2---------0----|-0-----4----4----4----4----4----0----|-0-----4----4----4----4----4----0----|
E|-------------------------------------|-------2----2----2----2----2---------|-------2----2----2----2----2---------|


E|-------------------------------------|----------------------|-------------------------------------|
B|-------------------------------------|-0--------------------|-------------------------------------|
G|-2-----------------------------------|-0--%-------%----2----|-2------------------------------2----|
D|-2-----4----4----4----4----4----4----|-0--%-------%----2----|-2-----4----4----4----4----4----2----|
A|-0-----4----4----4----4----4----4----|-0---------------0----|-0-----4----4----4----4----4----0----|
E|-------2----2----2----2----2----2----|----------------------|-------2----2----2----2----2---------|


E|----------------------|-------------------------------------|-------------------------------------|
B|-0--------------------|-------------------------------------|-----------------0----0--------------|
G|-0--%-------%----2----|-2------------------------------2----|-2----2----%---------------%----2----|
D|-0--%-------%----2----|-2-----4----4----4----4----4----2----|-2----2----%-----4----4----%----2----|
A|-0---------------0----|-0-----4----4----4----4----4----0----|-0----0----------2----2---------0----|
E|----------------------|-------2----2----2----2----2---------|-------------------------------------|


E|-------------------------------------|-------------------------------------|----------------------2------|
B|-------------------------------------|-------------------------------------|-----------------------------|
G|-2------------------------------2----|-2------------------------------2----|-2---------------------------|
D|-2-----4----4----4----4----4----2----|-2-----4----4----4----4----4----2----|-2-----4----4----4-----------|
A|-0-----4----4----4----4----4----0----|-0-----4----4----4----4----4----0----|-0-----4----4----4-----------|
E|-------2----2----2----2----2---------|-------2----2----2----2----2---------|-------2----2----2-----------|


E|-----------------------------------------|-------------------------------------|-------------------------------------|
B|-----------------------------------------|-------------------------------------|-------------------------------------|
G|-2----------------------------------2----|-2------------------------------2----|-2------------------------------2----|
D|------4----2------------------------2----|-2-----4----4----4----4----4----2----|-2-----4----4----4----4----4----2----|
A|----------------4----3----2----0----0----|-0-----4----4----4----4----4----0----|-0-----4----4----4----4----4----0----|
E|-----------------------------------------|-------2----2----2----2----2---------|-------2----2----2----2----2---------|


E|-------------------------------------|--------------------------------------------------|
B|-------------------------------------|------0-------0-------0----0----------------------|
G|-2-----------------------------------|-4----0--%----0--%---------0--%--------------2----|
D|-2-----4----4----4----4----4----4----|-4----0--%----0--%----4----0--%----4----6----2----|
A|-0-----4----4----4----4----4----4----|-2--------------------2------------4----6----0----|
E|-------2----2----2----2----2----2----|-----------------------------------2----4---------|


E|-------------------------------------|-------------------------------------|-------------------------------------|
B|-------------------------------------|-------------------------------------|-------------------------------------|
G|-2------------------------------2----|-2------------------------------2----|-2-----------------------------------|
D|-2-----4----4----4----4----4----2----|-2-----4----4----4----4----4----2----|-2-----4----4----4----4----4----4----|
A|-0-----4----4----4----4----4----0----|-0-----4----4----4----4----4----0----|-0-----4----4----4----4----4----4----|
E|-------2----2----2----2----2---------|-------2----2----2----2----2---------|-------2----2----2----2----2----2----|


E|--------------------------------------------------|-------------------------------------|
B|------0-------0-------0----0----------------------|-------------------------------------|
G|-4----0--%----0--%---------0--%--------------2----|-2------------------------------2----|
D|-4----0--%----0--%----4----0--%----4----6----2----|-2-----4----4----4----4----4----2----|
A|-2--------------------2------------4----6----0----|-0-----4----4----4----4----4----0----|
E|-----------------------------------2----4---------|-------2----2----2----2----2---------|


E|-------------------------------------|-------------------------------------|----------------------------|
B|-------------------------------------|-------------------------------------|-------0--------------------|
G|-2------------------------------2----|-2-----------------------------------|-4-----0--%----4------------|
D|-2-----4----4----4----4----4----2----|-2-----4----4----4----4----4----4----|-4-----0--%----4------6-----|
A|-0-----4----4----4----4----4----0----|-0-----4----4----4----4----4----4----|-2-------------2------4-----|
E|-------2----2----2----2----2---------|-------2----2----2----2----2----2----|----------------------------|


E|---------|---------------------------------|---------|-------------------------------------|
B|---------|---------------------------------|-0-------|-0----0------------------------------|
G|-2-------|-2----2--------------------------|---------|-------------------------------------|
D|-0-------|------0--------------------------|-2-------|-0----2------------------------------|
A|---------|-4---------2----0-----2----------|---------|-----------4----2-----4--------------|
E|---------|---------------------------4-----|---------|---------------------------0----1----|


E|---------------|---------|---------|---------|-------------------------------------|
B|---------------|---------|---------|---------|---------------------0---------------|
G|-------%-------|-%-------|-%-------|-%-------|-2----2----2----%----1-----2----2----|
D|-------%-------|-%-------|-%-------|-%-------|-4----4----4----%----2-----4----4----|
A|---------------|---------|---------|---------|-4----4----4---------------4----4----|
E|-2-------------|---------|---------|---------|-2----2----2-------------------------|


E|---------------------------------|-------------------------------------|---------------------------------|
B|----------------0----------------|---------------------0---------------|----------------0----------------|
G|-2----2----%----1----------------|-2----2----2----%----1-----2----2----|-2----2----%----1----------------|
D|-4----4----%----2------4----4----|-4----4----4----%----2-----4----4----|-4----4----%----2------4----4----|
A|-5----5----------------4----4----|-4----4----4---------------4----4----|-5----5----------------4----4----|
E|-----------------------2----2----|-2----2----2-------------------------|-----------------------2----2----|


E|-------------------------------------|---------------------------------|-------------------------------------|
B|---------------------0---------------|----------------0----------------|---------------------0---------------|
G|-2----2----2----%----1---------------|-2----2----%----1----------------|-2----2----2----%----1---------------|
D|-4----4----4----%----2-----4----4----|-4----4----%----2------4----4----|-4----4----4----%----2-----4----4----|
A|-4----4----4---------------4----4----|-5----5----------------4----4----|-4----4----4---------------4----4----|
E|-2----2----2---------------2----2----|-----------------------2----2----|-2----2----2---------------2----2----|


E|---------------------------------|-------------------------------------|---------------------------------|
B|----------------0----------------|---------------------0---------------|----------------0----------------|
G|-2----2----%----1----------------|-2----2----2----%----1-----2----2----|-2----2----%----1----------------|
D|-4----4----%----2------4----4----|-4----4----4----%----2-----4----4----|-4----4----%----2------4----4----|
A|-5----5----------------4----4----|-4----4----4---------------4----4----|-5----5----------------4----4----|
E|-----------------------2----2----|-2----2----2-------------------------|-----------------------2----2----|


E|-------------------------------------|---------------------------------|-------------------------------------|
B|---------------------0---------------|----------------0----------------|---------------------0---------------|
G|-2----2----2----%----1-----2----2----|-2----2----%----1----------------|-2----2----2----%----1---------------|
D|-4----4----4----%----2-----4----4----|-4----4----%----2------4----4----|-4----4----4----%----2-----4----4----|
A|-4----4----4---------------4----4----|-5----5----------------4----4----|-4----4----4---------------4----4----|
E|-2----2----2-------------------------|-----------------------2----2----|-2----2----2---------------2----2----|


E|---------------------------------|-------------------------------------|---------|
B|----------------0----------------|---------------------0---------------|---------|
G|-2----2----%----1----------------|-2----2----2----%----1---------------|-%-------|
D|-4----4----%----2------4----4----|-4----4----4----%----2-----4----4----|-%-------|
A|-5----5----------------4----4----|-4----4----4---------------4----4----|---------|
E|-----------------------2----2----|-2----2----2---------------2----2----|---------|


E|---------|---------|---------|---------|---------|---------|---------|---------|---------|
B|---------|---------|-0-------|-0-------|---------|---------|-0-------|-0-------|---------|
G|---------|---------|---------|---------|-2-------|-2-------|---------|---------|-2-------|
D|-4-------|-4-------|-2-------|-2-------|-0-------|-0-------|-2-------|-2-------|-4-------|
A|---------|---------|---------|---------|---------|---------|---------|---------|---------|
E|---------|---------|---------|---------|---------|---------|---------|---------|---------|


E|---------|---------|---------|---------|---------|---------|---------|---------|---------|
B|---------|-0-------|-0-------|---------|---------|-0-------|-0-------|---------|---------|
G|-2-------|---------|---------|-2-------|-2-------|---------|---------|-2-------|-2-------|
D|-4-------|-2-------|-2-------|-0-------|-0-------|-2-------|-2-------|-4-------|-4-------|
A|---------|---------|---------|---------|---------|---------|---------|---------|---------|
E|---------|---------|---------|---------|---------|---------|---------|---------|---------|


E|---------|---------|---------|---------|---------|-0--0--0--0--0--0--0--0--0--0--0--0--0--0--0--0--0--0--0--0--0--0--0--0--0--0--0--0--0--0--0--0--|
B|-0-------|-0-------|---------|---------|-0-------|-0--0--0--0--0--0--0--0--0--0--0--0--0--0--0--0--0--0--0--0--0--0--0--0--------------------------|
G|---------|---------|-2-------|-2-------|---------|-------------------------0--0--0--0--0--0--0--0--0--0--0--0--0--0--0--0--------------------------|
D|-2-------|-2-------|-0-------|-0-------|-2-------|-------------------------------------------------------------------------------------------------|
A|---------|---------|---------|---------|---------|-------------------------------------------------------------------------------------------------|
E|---------|---------|---------|---------|---------|-------------------------------------------------------------------------------------------------|


E|-------------------------------------|-------------------------------------|-------------------------------------|
B|---------------------0---------------|----------------0--------------------|---------------------0---------------|
G|-2----2----2----%----1---------------|-----------%----1--------------------|-2----2----2----%----1---------------|
D|-4----4----4----%----2-----4----4----|-4----4----%----2-----4----4----4----|-4----4----4----%----2-----4----4----|
A|-4----4----4---------------4----4----|-4----4---------------4----4----4----|-4----4----4---------------4----4----|
E|-2----2----2---------------2----2----|-2----2---------------2----2----2----|-2----2----2---------------2----2----|


E|-------------------------------------|-------------------------------------|-------------------------------------|
B|----------------0--------------------|---------------------0---------------|----------------0--------------------|
G|-----------%----1--------------------|-2----2----2----%----1---------------|-2----2----%----1--------------------|
D|-4----4----%----2-----4----4----4----|-4----4----4----%----2-----4----4----|-4----4----%----2-----4----4----4----|
A|-4----4---------------4----4----4----|-4----4----4---------------4----4----|-5----5---------------4----4----4----|
E|-2----2---------------2----2----2----|-2----2----2---------------2----2----|----------------------2----2----2----|


E|-------------------------------------|-------------------------------------|-------------------------------------|
B|---------------------0---------------|----------------0--------------------|---------------------0---------------|
G|-2----2----2----%----1---------------|-2----2----%----1--------------------|-2----2----2----%----1---------------|
D|-4----4----4----%----2-----4----4----|-4----4----%----2-----4----4----4----|-4----4----4----%----2-----4----4----|
A|-4----4----4---------------4----4----|-4----4---------------4----4----4----|-4----4----4---------------4----4----|
E|-2----2----2---------------2----2----|-2----2---------------2----2----2----|-2----2----2---------------2----2----|


E|-------------------------------------|-------------------------------------|-------------------------------------|
B|----------------0--------------------|---------------------0---------------|----------------0--------------------|
G|-----------%----1--------------------|-2----2----2----%----1---------------|-----------%----1--------------------|
D|-4----4----%----2-----4----4----4----|-4----4----4----%----2-----4----4----|-4----4----%----2-----4----4----4----|
A|-4----4---------------4----4----4----|-4----4----4---------------4----4----|-4----4---------------4----4----4----|
E|-2----2---------------2----2----2----|-2----2----2---------------2----2----|-2----2---------------2----2----2----|


E|-------------------------------------|-------------------------------------|-------------------------------------|
B|---------------------0---------------|----------------0--------------------|---------------------0---------------|
G|-2----2----2----%----1---------------|-2----2----%----1--------------------|-2----2----2----%----1---------------|
D|-4----4----4----%----2-----4----4----|-4----4----%----2-----4----4----4----|-4----4----4----%----2-----4----4----|
A|-4----4----4---------------4----4----|-5----5---------------4----4----4----|-4----4----4---------------4----4----|
E|-2----2----2---------------2----2----|----------------------2----2----2----|-2----2----2---------------2----2----|


E|-------------------------------------|---------|---------|---------|---------|---------|
B|----------------0--------------------|---------|---------|---------|---------|---------|
G|-2----2----%----1--------------------|---------|---------|---------|---------|---------|
D|-4----4----%----2-----4----4----4----|-4-------|-4-------|-2-------|-2-------|-2-------|
A|-4----4---------------4----4----4----|-4-------|-4-------|-2-------|-2-------|-2-------|
E|-2----2---------------2----2----2----|-2-------|-2-------|-0-------|-0-------|-0-------|


E|---------|---------|---------|---------|---------|---------|---------|---------|---------|
B|---------|---------|---------|---------|---------|---------|---------|---------|---------|
G|---------|---------|---------|---------|---------|---------|---------|---------|---------|
D|-2-------|-2-------|-2-------|-4-------|-4-------|-2-------|-2-------|-2-------|-2-------|
A|-2-------|-2-------|-2-------|-4-------|-4-------|-2-------|-2-------|-2-------|-2-------|
E|-0-------|-0-------|-0-------|-2-------|-2-------|-0-------|-0-------|-0-------|-0-------|


E|---------|-------------------|---------------|-------------------|-------------------------------------|
B|---------|-------------------|---------------|-------------------|-------------------------------------|
G|---------|-------------------|---------%-----|-%-------%----2----|-2------------------------------2----|
D|-2-------|-2-------2----2----|-2-------%-----|-%-------%----2----|-2-----4----4----4----4----4----2----|
A|-2-------|-2-------2----2----|-2-------------|--------------0----|-0-----4----4----4----4----4----0----|
E|-0-------|-0-------0----0----|-0-------------|-------------------|-------2----2----2----2----2---------|


E|-------------------------------------|-------------------------------------|-----------------------------------|
B|-------------------------------------|-------------------------------------|-2----2----------4-----------------|
G|-2------------------------------2----|-2-----------------------------------|-2----2----%-----4----%-------2----|
D|-2-----4----4----4----4----4----2----|-2-----4----4----4----4----4----4----|-2----2----%-----4----%-------2----|
A|-0-----4----4----4----4----4----0----|-0-----4----4----4----4----4----4----|-0----0----------2------------0----|
E|-------2----2----2----2----2---------|-------2----2----2----2----2----2----|-----------------------------------|


E|-------------------------------------|-------------------------------------|-------------------------------------|
B|-------------------------------------|-------------------------------------|-------------------------------------|
G|-2------------------------------2----|-2------------------------------2----|-2-----------------------------------|
D|-2-----4----4----4----4----4----2----|-2-----4----4----4----4----4----2----|-2-----4----4----4----4----4----4----|
A|-0-----4----4----4----4----4----0----|-0-----4----4----4----4----4----0----|-0-----4----4----4----4----4----4----|
E|-------2----2----2----2----2---------|-------2----2----2----2----2---------|-------2----2----2----2----2----2----|


E|-----------------------------------|-------------------------------------|-------------------------------------|
B|-2----2----------4-----------------|-------------------------------------|-------------------------------------|
G|-2----2----%-----4----%-------2----|-2------------------------------2----|-2------------------------------2----|
D|-2----2----%-----4----%-------2----|-2-----4----4----4----4----4----2----|-2-----4----4----4----4----4----2----|
A|-0----0----------2------------0----|-0-----4----4----4----4----4----0----|-0-----4----4----4----4----4----0----|
E|-----------------------------------|-------2----2----2----2----2---------|-------2----2----2----2----2---------|


E|-------------------------------------|-----------------------------------|-------------------------------------|
B|-------------------------------------|-2----2----------4-----------------|-------------------------------------|
G|-2-----------------------------------|-2----2----%-----4----%-------2----|-2------------------------------2----|
D|-2-----4----4----4----4----4----4----|-2----2----%-----4----%-------2----|-2-----4----4----4----4----4----2----|
A|-0-----4----4----4----4----4----4----|-0----0----------2------------0----|-0-----4----4----4----4----4----0----|
E|-------2----2----2----2----2----2----|-----------------------------------|-------2----2----2----2----2---------|


E|-------------------------------------|-------------------------------------|-----------------------------------------|
B|-------------------------------------|-------------------------------------|-----------------------------------------|
G|-2------------------------------2----|-2-----------------------------------|------%----------------------------------|
D|-2-----4----4----4----4----4----2----|-2-----4----4----4----4----4----4----|------%----------------------------------|
A|-0-----4----4----4----4----4----0----|-0-----4----4----4----4----4----4----|---------------------4----4----2----4----|
E|-------2----2----2----2----2---------|-------2----2----2----2----2----2----|-0---------0----1----2----2----0----2----|


E|------------------------|
B|------------------------|
G|------------%------%----|
D|------------%------%----|
A|-4-----4----------------|
E|-2-----2----------------|

    

Nézd meg a videót és ismerd meg a leggyorsabb utat, hogyan tanulhatod meg kedvenc számaid gitáron!