Hogyan játszd el gitáron a Motley Crue – Shout At The Devil dalt?

Motley Crue Shout At The Devil – GITÁR PRO TAB, KOTTA, AKKORDOK

Kotta típusa: Raita 1

(Általában egy zeneszám minden kottája: gitár, szólógitár, basszusgitár, ének, zongora, dob stb. megtalálható az oldalon, de mindegyik egy külön bejegyzésben. Ha egy másik hangszer gitártabos kottáját keresed, akkor az oldal alján vagy a keresőben megtalálod. Sokszor a zenekar tagjának a neve lesz a kotta kategóriája.)

        


D|----------------------------|---------X-----|----------------------------|-------------------|
A|----------------------------|---------X-----|----------------------------|---------X---X-----|
F|---------------5-----5------|-5-------------|---------------7-----7------|-7-------X---X-----|
C|---------------5-----5------|-5-------------|---------------7-----7------|-7-----------------|
G|-0----0----0----------------|---------------|-0----0----0----------------|-------------------|
D|----------------------------|---------------|----------------------------|-------------------|


D|----------------------------|---------X-----|----------------------------|-------------------|
A|----------------------------|---------X-----|----------------------------|---------X---X-----|
F|---------------5-----5------|-5-------------|---------------7-----7------|-7-------X---X-----|
C|---------------5-----5------|-5-------------|---------------7-----7------|-7-----------------|
G|-0----0----0----------------|---------------|-0----0----0----------------|-------------------|
D|----------------------------|---------------|----------------------------|-------------------|


D|-----------------------------------------|-----------------------------------------------|
A|-----------------------------------------|-----------------------------------------------|
F|---------------5-------------------7-----|---------------5-------------------------------|
C|---------------5-------------------7-----|---------------5-------------5---7---5---5-----|
G|-0----0----0---------0----0----0---------|-0----0----0---------5---7---------------3-----|
D|-----------------------------------------|-----------------------------------------------|


D|-----------------------------------------|-----------------------------------------------|
A|-----------------------------------------|-----------------------------------------------|
F|---------------5-------------------7-----|---------------5---------------------7---5-----|
C|---------------5-------------------7-----|---------------5-------------5---7-------------|
G|-0----0----0---------0----0----0---------|-0----0----0---------5---7---------------------|
D|-----------------------------------------|-----------------------------------------------|


D|-----------------------------------------|-----------------------------------------------|
A|-----------------------------------------|-----------------------------------------------|
F|---------------5-------------------7-----|---------------5---------------------7---5-----|
C|---------------5-------------------7-----|---------------5-------------5-------7---------|
G|-0----0----0---------0----0----0---------|-0----0----0---------5---7-------7-------------|
D|-----------------------------------------|-----------------------------------------------|


D|-----------------------------------------|-----------------------------------------------|
A|-----------------------------------------|-----------------------------------------5-----|
F|---------------5-------------------7-----|---------------5-------------------------5-----|
C|---------------5-------------------7-----|---------------5-------------5-----------5-----|
G|-0----0----0---------0----0----0---------|-0----0----0---------5---7-------5---0---3-----|
D|-----------------------------------------|-----------------------------------------------|


D|---------------------------------|-------------------------------------|---------------------------------|
A|---------------------------------|-------------------------------------|---------------------------------|
F|-7-----5-----2----2----2---5-----|-7----7----5-----5---2----%----%-----|-7-----5-----2----2----2---5-----|
C|-7-----5-----2----2----2---5-----|-7----7----5-----5---2----%----%-----|-7-----5-----2----2----2---5-----|
G|-5-----3-----0----0----0---3-----|-5----5----3-----3---0---------------|-5-----3-----0----0----0---3-----|
D|---------------------------------|-------------------------------------|---------------------------------|


D|-------------------------------------|---------------------------------|-------------------------------------|
A|-------------------------------------|---------------------------------|-------------------------------------|
F|-7----7----5-----5---2----%----%-----|-7-----5-----2----2----2---5-----|-7----7----5-----5---2----%----%-----|
C|-7----7----5-----5---2----%----%-----|-7-----5-----2----2----2---5-----|-7----7----5-----5---2----%----%-----|
G|-5----5----3-----3---0---------------|-5-----3-----0----0----0---3-----|-5----5----3-----3---0---------------|
D|-------------------------------------|---------------------------------|-------------------------------------|


D|------------------------------------|--------------------------------------------|
A|------------------------------------|-----------5----------------------3---------|
F|-7-----5-----2----2----2---5--------|-5---------5----------------------0---------|
C|-7-----5-----2----2----2---5--------|-5---------5--------------------------------|
G|-5-----3-----0----0----0---3----0---|-3----3---------3----2---2---2---------2----|
D|------------------------------------|--------------------------------------------|


D|-----------------------------------------|-----------------------------------------------|
A|-----------------------------------------|-----------------------------------------------|
F|---------------5-------------------7-----|---------------5-------------------------------|
C|---------------5-------------------7-----|---------------5-------------5---7---5---5-----|
G|-0----0----0---------0----0----0---------|-0----0----0---------5---7---------------3-----|
D|-----------------------------------------|-----------------------------------------------|


D|-----------------------------------------|-----------------------------------------------|
A|-----------------------------------------|-----------------------------------------------|
F|---------------5-------------------7-----|---------------5-------------------------------|
C|---------------5-------------------7-----|---------------5-------------5---7---5---------|
G|-0----0----0---------0----0----0---------|-0----0----0---------5---7---------------3-----|
D|-----------------------------------------|-----------------------------------------------|


D|---------------------------------|-------------------------------------|---------------------------------|
A|---------------------------------|-------------------------------------|---------------------------------|
F|-7-----5-----2----2----2---5-----|-7----7----5-----5---2----%----%-----|-7-----5-----2----2----2---5-----|
C|-7-----5-----2----2----2---5-----|-7----7----5-----5---2----%----%-----|-7-----5-----2----2----2---5-----|
G|-5-----3-----0----0----0---3-----|-5----5----3-----3---0---------------|-5-----3-----0----0----0---3-----|
D|---------------------------------|-------------------------------------|---------------------------------|


D|-------------------------------------|---------------------------------|-------------------------------------|
A|-------------------------------------|---------------------------------|-------------------------------------|
F|-7----7----5-----5---2----%----%-----|-7-----5-----2----2----2---5-----|-7----7----5-----5---2----%----%-----|
C|-7----7----5-----5---2----%----%-----|-7-----5-----2----2----2---5-----|-7----7----5-----5---2----%----%-----|
G|-5----5----3-----3---0---------------|-5-----3-----0----0----0---3-----|-5----5----3-----3---0---------------|
D|-------------------------------------|---------------------------------|-------------------------------------|


D|------------------------------------|---------------------------------|-----------------------------------------|
A|------------------------------------|-----------------------3---------|-----------------------------------------|
F|-7-----5-----2----2----2---5--------|-------5---------------0---------|---------------5-------------------7-----|
C|-7-----5-----2----2----2---5--------|-------5-------------------------|---------------5-------------------7-----|
G|-5-----3-----0----0----0---3----0---|-3----------3----2----------2----|-0----0----0---------0----0----0---------|
D|------------------------------------|---------------------------------|-----------------------------------------|


D|-----------------------------------------------|-----------------------------------------|
A|-----------------------------------------------|-----------------------------------------|
F|---------------5-------------------------------|---------------5-------------------7-----|
C|---------------5-------------5---7---5---5-----|---------------5-------------------7-----|
G|-0----0----0---------5---7---------------3-----|-0----0----0---------0----0----0---------|
D|-----------------------------------------------|-----------------------------------------|


D|--------------------------------------------|-------------------------------------|
A|--------------------------------------5-----|-------------------------------------|
F|---------------5----------------------5-----|-----------%---------------%---------|
C|---------------5----------7---7-------5-----|-2----2----%-----2----2----%---------|
G|-0----0----0---------5----5---5---3---3-----|-2----2----------2----2----------X---|
D|--------------------------------------------|-0----0----------0----0----------X---|


D|-----------------------------------------------|---------------------------------|
A|-----------------------------------------------|---------------------------------|
F|-----------%-----------------------------------|-----------%---------------%-----|
C|-2----2----%-----------------------------------|-2----2----%-----2----2----%-----|
G|-2----2----------X---------------0---2---3-----|-2----2----------2----2----------|
D|-0----0----------X---0---2---3-----------------|-0----0----------0----0----------|


D|-------------------------------------------|---------------------------------|------------------------------------|
A|-------------------------------------------|---------------------------------|------------------------------------|
F|-----------%-------------------------------|-----------%---------------%-----|-----------%--------------------7---|
C|-2----2----%-------------------------------|-2----2----%-----2----2----%-----|-2----2----%--------------------7---|
G|-2----2--------------------------0---3-----|-2----2----------2----2----------|-2----2----------5-----6---7----5---|
D|-0----0----------0---2---3---0-------------|-0----0----------0----0----------|-0----0----------3-----4---5--------|


D|---------------------------------|-------------------------------------|---------------------------------|
A|---------------------------------|-------------------------------------|---------------------------------|
F|-7-----5-----2----2----2---5-----|-7----7----5-----5---2----%----%-----|-7-----5-----2----2----2---5-----|
C|-7-----5-----2----2----2---5-----|-7----7----5-----5---2----%----%-----|-7-----5-----2----2----2---5-----|
G|-5-----3-----0----0----0---3-----|-5----5----3-----3---0---------------|-5-----3-----0----0----0---3-----|
D|---------------------------------|-------------------------------------|---------------------------------|


D|-------------------------------------|---------------------------------|-------------------------------------|
A|-------------------------------------|---------------------------------|-------------------------------------|
F|-7----7----5-----5---2----%----%-----|-7-----5-----2----2----2---5-----|-7----7----5-----5---2----%----%-----|
C|-7----7----5-----5---2----%----%-----|-7-----5-----2----2----2---5-----|-7----7----5-----5---2----%----%-----|
G|-5----5----3-----3---0---------------|-5-----3-----0----0----0---3-----|-5----5----3-----3---0---------------|
D|-------------------------------------|---------------------------------|-------------------------------------|


D|------------------------------------|---------------------------------|-----------------------------------------|
A|------------------------------------|-----------------------3---------|-----------------------------------------|
F|-7-----5-----2----2----2---5--------|-------5---------------0---------|---------------5-------------------7-----|
C|-7-----5-----2----2----2---5--------|-------5-------------------------|---------------5-------------------7-----|
G|-5-----3-----0----0----0---3----0---|-3----------3----2----------2----|-0----0----0---------0----0----0---------|
D|------------------------------------|---------------------------------|-----------------------------------------|


D|-----------------------------------------------|-----------------------------------------|
A|-----------------------------------------------|-----------------------------------------|
F|---------------5-------------------------------|---------------5-------------------7-----|
C|---------------5-------------5---7---5---5-----|---------------5-------------------7-----|
G|-0----0----0---------5---7---------------3-----|-0----0----0---------0----0----0---------|
D|-----------------------------------------------|-----------------------------------------|


D|-----------------------------------------------|---------|---------|---------|---------|
A|-----------------------------------------------|---------|---------|---------|---------|
F|---------------5-------------------------------|-%-------|-%-------|-%-------|-%-------|
C|---------------5-------------5---7---5---5-----|-%-------|-%-------|-%-------|-%-------|
G|-0----0----0---------5---7---------------3-----|---------|---------|---------|---------|
D|-----------------------------------------------|---------|---------|---------|---------|


D|---------------------------------------|-----------------------------------------|
A|---------------------------------------|-----------------------------------------|
F|-%---------------------------7---5-----|---------------5-------------------7-----|
C|-%-------------------5-----------------|---------------5-------------------7-----|
G|-------12----5---7-------7-------------|-0----0----0---------0----0----0---------|
D|---------------------------------------|-----------------------------------------|


D|-----------------------------------------------|-----------------------------------------|
A|-----------------------------------------------|-----------------------------------------|
F|---------------5---------------------7---5-----|---------------5-------------------7-----|
C|---------------5-------------5-------7---------|---------------5-------------------7-----|
G|-0----0----0---------5---7-------7-------------|-0----0----0---------0----0----0---------|
D|-----------------------------------------------|-----------------------------------------|


D|-----------------------------------------------|-----------------------------------------------------------|
A|-----------------------------------------------|-----------------------------------------------------------|
F|---------------5---------------------7---5-----|-----------------------------------------------------------|
C|---------------5-------------5-------7---------|--------------4---5------------------------6---7-----------|
G|-0----0----0---------5---7-------7-------------|-0----0---0---2---3---0---0---0----0---0---4---5---0---0---|
D|-----------------------------------------------|-----------------------------------------------------------|


D|--------------------------------------------------------|-----------------------------------------------------------|
A|--------------------------------------------------------|-----------------------------------------------------------|
F|--------------------------------------------------5-----|-----------------------------------------------------------|
C|--------------4---5-------------------5---7-------------|--------------4---5------------------------6---7-----------|
G|-0----0---0---2---3---0---0---5---7-----------7---------|-0----0---0---2---3---0---0---0----0---0---4---5---0---0---|
D|--------------------------------------------------------|-----------------------------------------------------------|


D|--------------------------------------------------------|-----------------------------------------------------------|
A|--------------------------------------------------------|-----------------------------------------------------------|
F|--------------------------------------------------5-----|-----------------------------------------------------------|
C|--------------4---5-------------------5---7-------------|--------------4---5------------------------6---7-----------|
G|-0----0---0---2---3---0---0---5---7-----------7---------|-0----0---0---2---3---0---0---0----0---0---4---5---0---0---|
D|--------------------------------------------------------|-----------------------------------------------------------|


D|--------------------------------------------------------|-----------------------------------------------------------|
A|--------------------------------------------------------|-----------------------------------------------------------|
F|--------------------------------------------------5-----|-----------------------------------------------------------|
C|--------------4---5-------------------5---7-------------|--------------4---5------------------------6---7-----------|
G|-0----0---0---2---3---0---0---5---7-----------7---------|-0----0---0---2---3---0---0---0----0---0---4---5---0---0---|
D|--------------------------------------------------------|-----------------------------------------------------------|


D|--------------------------------------------------------|
A|--------------------------------------------------------|
F|--------------------------------------------------5-----|
C|--------------4---5-------------------5---7-------------|
G|-0----0---0---2---3---0---0---5---7-----------7---------|
D|--------------------------------------------------------|

    

Nézd meg a videót és ismerd meg a leggyorsabb utat, hogyan tanulhatod meg kedvenc számaid gitáron!