Hogyan játszd el gitáron a Mourning Beloveth – Elemental Nausea dalt?

Mourning Beloveth Elemental Nausea – GITÁR PRO TAB, KOTTA, AKKORDOK

Kotta típusa: Guitar 1 Clean

(Általában egy zeneszám minden kottája: gitár, szólógitár, basszusgitár, ének, zongora, dob stb. megtalálható az oldalon, de mindegyik egy külön bejegyzésben. Ha egy másik hangszer gitártabos kottáját keresed, akkor az oldal alján vagy a keresőben megtalálod. Sokszor a zenekar tagjának a neve lesz a kotta kategóriája.)

        


C#|------------------------|---------------------------------------|-------------------------------------------------------------|
G#|------------------------|---------------------------------------|-------------------------------1-----------------------------|
 E|-7----9-----------------|-7----9--------------10----------------|----------------0-----------------------------0--------------|
 B|-7---------7------------|-7---------7--------------7------------|------2--------------2--------------2--------------2---------|
F#|-0--------------0-------|-0--------------0--------------0-------|-3---------3--------------3--------------3--------------2----|
C#|------------------------|---------------------------------------|-------------------------------------------------------------|


C#|------------------------------------------------|--------------------------------------|
G#|------------------------------------------------|--------------------------------------|
 E|------------------------------------------------|------9--------------9----------------|
 B|------------------------------------------------|-----------7--------------7-----------|
F#|------2---------2----3----3--5----5------2------|-0--------------0--------------0------|
C#|-3---------3------------------------------------|--------------------------------------|


C#|---------------------------------------|--------------------------------------|---------------------------------------|
G#|---------------------------------------|--------------------------------------|---------------------------------------|
 E|-7----9--------------10----------------|-7----9--------------9----------------|-7----9--------------10----------------|
 B|-7---------7--------------7------------|-7---------7--------------7-----------|-7---------7--------------7------------|
F#|-0--------------0--------------0-------|-0--------------0--------------0------|-0--------------0--------------0-------|
C#|---------------------------------------|--------------------------------------|---------------------------------------|


C#|-------------------------------------------------------------|------------------------------------------------|
G#|-------------------------------1-----------------------------|------------------------------------------------|
 E|----------------0-----------------------------0--------------|------------------------------------------------|
 B|------2--------------2--------------2--------------2---------|------------------------------------------------|
F#|-3---------3--------------3--------------3--------------2----|------2---------2----3----3--5----5------2------|
C#|-------------------------------------------------------------|-3---------3------------------------------------|


C#|----------------------------------------------|---------------------------------------|
G#|----------------------------------------------|---------------------------------------|
 E|------9--------------9--------------9---------|-7----9--------------10----------------|
 B|-----------7--------------7--------------7----|-7---------7--------------7------------|
F#|-0--------------0--------------0--------------|-0--------------0--------------0-------|
C#|----------------------------------------------|---------------------------------------|


C#|----------------------------------------------|---------------------------------------|
G#|----------------------------------------------|---------------------------------------|
 E|-7----9--------------9--------------9---------|-7----9--------------10----------------|
 B|-7---------7--------------7--------------7----|-7---------7--------------7------------|
F#|-0--------------0--------------0--------------|-0--------------0--------------0-------|
C#|----------------------------------------------|---------------------------------------|


C#|-------------------------------------------------|------------------------------------------------|
G#|-------------------------------1-----------------|------------------------------------------------|
 E|----------------0---------------------0----------|------------------------------------------------|
 B|------2--------------2---------------------------|------------------------------------------------|
F#|-3---------3--------------3-----------------0----|------2---------2----3----3--5----5------2------|
C#|-------------------------------------------------|-3---------3------------------------------------|


C#|------------------------|----------------------------------------------------------|
G#|------------------------|----------------------------------------------------------|
 E|------9-----------------|-7----9--------------10-------------10--------------------|
 B|-----------7------------|-7---------7--------------7--------------7----------------|
F#|-0--------------0-------|-0--------------0--------------0--------------0------0----|
C#|------------------------|----------------------------------------------------------|


C#|------------------------|----------------------------------------------------------|
G#|------------------------|----------------------------------------------------------|
 E|-7----9-----------------|-7----9--------------10-------------10--------------------|
 B|-7---------7------------|-7---------7--------------7--------------7----------------|
F#|-0--------------0-------|-0--------------0--------------0--------------0------0----|
C#|------------------------|----------------------------------------------------------|


C#|-------------------------------------------------|------------------------------------------------|
G#|-------------------------------1-----------------|------------------------------------------------|
 E|----------------0---------------------0----------|------------------------------------------------|
 B|------2--------------2---------------------------|------------------------------------------------|
F#|-3---------3--------------3-----------------0----|------2---------2----3----3--5----5------2------|
C#|-------------------------------------------------|-3---------3------------------------------------|


C#|-------------------------------------------------------------|------------------------------------------------------------|
G#|------8----8-------------------------------------------------|------------------------------------------------------------|
 E|---------------------9----9---------10---10--------7----7----|----------------9-------------------------9---7-------------|
 B|-----------10-------------10-------------10-------------9----|------7---------------7---------7-----------------10---9----|
F#|-0--------------0--------------0--------------0--------------|-0---------0---------------0---------0----------------------|
C#|-------------------------------------------------------------|------------------------------------------------------------|


C#|-------------------------------------------------------------|---------------------------------------------------------|
G#|-------------------------------------------------------------|---------------------------------------------------------|
 E|------9----9---------7----7---------4----4---------7----7----|----------------5---------------5---------4---------0----|
 B|-----------7--------------5--------------5---------5----5----|------3---------------3----------------------------------|
F#|-0--------------0--------------0--------------0--------------|-0---------0---------------0---------0---------0---------|
C#|-------------------------------------------------------------|---------------------------------------------------------|


C#|-------------------------------------------------------------|------------------------------------------------------------|
G#|------8----8-------------------------------------------------|------------------------------------------------------------|
 E|---------------------9----9---------10---10--------7----7----|----------------9-------------------------9---7-------------|
 B|-----------10-------------10-------------10-------------9----|------7---------------7---------7-----------------10---9----|
F#|-0--------------0--------------0--------------0--------------|-0---------0---------------0---------0----------------------|
C#|-------------------------------------------------------------|------------------------------------------------------------|


C#|-------------------------------------------------------------|---------------------------------------------------------|
G#|-------------------------------------------------------------|---------------------------------------------------------|
 E|------9----9---------7----7---------4----4---------7----7----|----------------5---------------5---------4---------0----|
 B|-----------7--------------5--------------5---------5----5----|------3---------------3----------------------------------|
F#|-0--------------0--------------0--------------0--------------|-0---------0---------------0---------0---------0---------|
C#|-------------------------------------------------------------|---------------------------------------------------------|


C#|-------------------------------------------------------------|------------------------------------------------------------|
G#|------8----8-------------------------------------------------|------------------------------------------------------------|
 E|---------------------9----9---------10---10--------7----7----|----------------9-------------------------9---7-------------|
 B|-----------10-------------10-------------10-------------9----|------7---------------7---------7-----------------10---9----|
F#|-0--------------0--------------0--------------0--------------|-0---------0---------------0---------0----------------------|
C#|-------------------------------------------------------------|------------------------------------------------------------|


C#|-------------------------------------------------------------|---------------------------------------------------------|
G#|-------------------------------------------------------------|---------------------------------------------------------|
 E|------9----9---------7----7---------4----4---------7----7----|----------------5---------------5---------4---------0----|
 B|-----------7--------------5--------------5---------5----5----|------3---------------3----------------------------------|
F#|-0--------------0--------------0--------------0--------------|-0---------0---------------0---------0---------0---------|
C#|-------------------------------------------------------------|---------------------------------------------------------|


C#|-------------------------------------------------------------|------------------------------------------------------------|
G#|------8----8-------------------------------------------------|------------------------------------------------------------|
 E|---------------------9----9---------10---10--------7----7----|----------------9-------------------------9---7-------------|
 B|-----------10-------------10-------------10-------------9----|------7---------------7---------7-----------------10---9----|
F#|-0--------------0--------------0--------------0--------------|-0---------0---------------0---------0----------------------|
C#|-------------------------------------------------------------|------------------------------------------------------------|


C#|-------------------------------------------------------------|---------------------------------------------------------|
G#|-------------------------------------------------------------|---------------------------------------------------------|
 E|------9----9---------7----7---------4----4---------7----7----|----------------5---------------5---------4---------0----|
 B|-----------7--------------5--------------5---------5----5----|------3---------------3----------------------------------|
F#|-0--------------0--------------0--------------0--------------|-0---------0---------------0---------0---------0---------|
C#|-------------------------------------------------------------|---------------------------------------------------------|


C#|---------------------------------------------------------------------------------|
G#|---------------------------------------------------------------------------------|
 E|---------------------------------------------------------------------------------|
 B|------2---------2---------0---------0---------3---------3---------3---------3----|
F#|-0---------0---------0---------0---------0---------0---------0---------0---------|
C#|---------------------------------------------------------------------------------|


C#|---------------------------------------------------------------------------------|
G#|---------------------------------------------------------------------------------|
 E|---------------------------------------------------------------------------------|
 B|------2---------2---------0---------0---------3---------3---------3---------0----|
F#|-0---------0---------0---------0---------0---------0---------0---------0---------|
C#|---------------------------------------------------------------------------------|


C#|---------------------------------------------------------------------------------|
G#|---------------------------------------------------------------------------------|
 E|---------------------------------------------------------------------------------|
 B|------3---------3---------3---------3---------2---------2---------2---------2----|
F#|---------------------------------------------------1---------1---------1---------|
C#|-1---------1---------1---------1---------1---------------------------------------|


C#|---------------------------------------------------------------------------------|
G#|---------------------------------------------------------------------------------|
 E|---------------------------------------------------------------------------------|
 B|------3---------3---------3---------3---------2---------2---------2---------2----|
F#|-1-------------------------------------------------1---------1---------1---------|
C#|-----------1---------1---------1---------1---------------------------------------|


C#|---------------------------------------------------------------------------------|
G#|---------------------------------------------------------------------------------|
 E|---------------------------------------------------------------------------------|
 B|------2---------2---------0---------0---------3---------3---------3---------3----|
F#|-0---------0---------0---------0---------0---------0---------0---------0---------|
C#|---------------------------------------------------------------------------------|


C#|---------------------------------------------------------------------------------|
G#|---------------------------------------------------------------------------------|
 E|---------------------------------------------------------------------------------|
 B|------2---------2---------0---------0---------3---------3---------3---------0----|
F#|-0---------0---------0---------0---------0---------0---------0---------0---------|
C#|---------------------------------------------------------------------------------|


C#|---------------------------------------------------------------------------------|
G#|---------------------------------------------------------------------------------|
 E|---------------------------------------------------------------------------------|
 B|------3---------3---------3---------3---------2---------2---------2---------2----|
F#|---------------------------------------------------1---------1---------1---------|
C#|-1---------1---------1---------1---------1---------------------------------------|


C#|---------------------------------------------------------------------------------|
G#|---------------------------------------------------------------------------------|
 E|---------------------------------------------------------------------------------|
 B|------3---------3---------3---------3---------2---------2---------2---------2----|
F#|-1-------------------------------------------------1---------1---------1---------|
C#|-----------1---------1---------1---------1---------------------------------------|


C#|---------------------------------------------------------------------------------|
G#|---------------------------------------------------------------------------------|
 E|---------------------------------------------------------------------------------|
 B|------2---------2---------0---------0---------3---------3---------3---------3----|
F#|-0---------0---------0---------0---------0---------0---------0---------0---------|
C#|---------------------------------------------------------------------------------|


C#|---------------------------------------------------------------------------------|
G#|---------------------------------------------------------------------------------|
 E|---------------------------------------------------------------------------------|
 B|------2---------2---------0---------0---------3---------3---------3---------0----|
F#|-0---------0---------0---------0---------0---------0---------0---------0---------|
C#|---------------------------------------------------------------------------------|


C#|---------------------------------------------------------------------------------|
G#|---------------------------------------------------------------------------------|
 E|---------------------------------------------------------------------------------|
 B|------3---------3---------3---------3---------2---------2---------2---------2----|
F#|---------------------------------------------------1---------1---------1---------|
C#|-1---------1---------1---------1---------1---------------------------------------|


C#|---------------------------------------------------------------------------------|
G#|---------------------------------------------------------------------------------|
 E|---------------------------------------------------------------------------------|
 B|------3---------3---------3---------3---------2---------2---------2---------2----|
F#|-1-------------------------------------------------1---------1---------1---------|
C#|-----------1---------1---------1---------1---------------------------------------|


C#|---------------------------------------------------------------------------------|
G#|---------------------------------------------------------------------------------|
 E|---------------------------------------------------------------------------------|
 B|------2---------2---------0---------0---------3---------3---------3---------3----|
F#|-0---------0---------0---------0---------0---------0---------0---------0---------|
C#|---------------------------------------------------------------------------------|


C#|---------------------------------------------------------------------------------|
G#|---------------------------------------------------------------------------------|
 E|---------------------------------------------------------------------------------|
 B|------2---------2---------0---------0---------3---------3---------3---------0----|
F#|-0---------0---------0---------0---------0---------0---------0---------0---------|
C#|---------------------------------------------------------------------------------|


C#|---------------------------------------------------------------------------------|
G#|---------------------------------------------------------------------------------|
 E|---------------------------------------------------------------------------------|
 B|------3---------3---------3---------3---------2---------2---------2---------2----|
F#|---------------------------------------------------1---------1---------1---------|
C#|-1---------1---------1---------1---------1---------------------------------------|


C#|---------------------------------------------------------------------------------|
G#|---------------------------------------------------------------------------------|
 E|---------------------------------------------------------------------------------|
 B|------3---------3---------3---------3---------2---------2---------2---------2----|
F#|-1-------------------------------------------------1---------1---------1---------|
C#|-----------1---------1---------1---------1---------------------------------------|


C#|-----------------|-----------------|-----------------|-----------------|-----------------|
G#|-----------------|-----------------|-----------------|-----------------|-----------------|
 E|-%-------%-------|-%-------%-------|-%-------%-------|-%-------%-------|-%-------%-------|
 B|-%-------%-------|-%-------%-------|-%-------%-------|-%-------%-------|-%-------%-------|
F#|-----------------|-----------------|-----------------|-----------------|-----------------|
C#|-----------------|-----------------|-----------------|-----------------|-----------------|


C#|-----------------|-----------------|-----------------|-----------------|-----------------|
G#|-----------------|-----------------|-----------------|-----------------|-----------------|
 E|-%-------%-------|-%-------%-------|-%-------%-------|-%-------%-------|-%-------%-------|
 B|-%-------%-------|-%-------%-------|-%-------%-------|-%-------%-------|-%-------%-------|
F#|-----------------|-----------------|-----------------|-----------------|-----------------|
C#|-----------------|-----------------|-----------------|-----------------|-----------------|


C#|-----------------|-----------------|-----------------|-----------------|-----------------|
G#|-----------------|-----------------|-----------------|-----------------|-----------------|
 E|-%-------%-------|-%-------%-------|-%-------%-------|-%-------%-------|-%-------%-------|
 B|-%-------%-------|-%-------%-------|-%-------%-------|-%-------%-------|-%-------%-------|
F#|-----------------|-----------------|-----------------|-----------------|-----------------|
C#|-----------------|-----------------|-----------------|-----------------|-----------------|


C#|-----------------|-----------------|-----------------|-----------------|-----------------|
G#|-----------------|-----------------|-----------------|-----------------|-----------------|
 E|-%-------%-------|-%-------%-------|-%-------%-------|-%-------%-------|-%-------%-------|
 B|-%-------%-------|-%-------%-------|-%-------%-------|-%-------%-------|-%-------%-------|
F#|-----------------|-----------------|-----------------|-----------------|-----------------|
C#|-----------------|-----------------|-----------------|-----------------|-----------------|


C#|-----------------|-----------------|-----------------|-----------------|-----------------|
G#|-----------------|-----------------|-----------------|-----------------|-----------------|
 E|-%-------%-------|-%-------%-------|-%-------%-------|-%-------%-------|-%-------%-------|
 B|-%-------%-------|-%-------%-------|-%-------%-------|-%-------%-------|-%-------%-------|
F#|-----------------|-----------------|-----------------|-----------------|-----------------|
C#|-----------------|-----------------|-----------------|-----------------|-----------------|


C#|-----------------|-----------------|-----------------|-----------------|-----------------|
G#|-----------------|-----------------|-----------------|-----------------|-----------------|
 E|-%-------%-------|-%-------%-------|-%-------%-------|-%-------%-------|-%-------%-------|
 B|-%-------%-------|-%-------%-------|-%-------%-------|-%-------%-------|-%-------%-------|
F#|-----------------|-----------------|-----------------|-----------------|-----------------|
C#|-----------------|-----------------|-----------------|-----------------|-----------------|


C#|-----------------|-----------------|-----------------|-----------------|-----------------|
G#|-----------------|-----------------|-----------------|-----------------|-----------------|
 E|-%-------%-------|-%-------%-------|-%-------%-------|-%-------%-------|-%-------%-------|
 B|-%-------%-------|-%-------%-------|-%-------%-------|-%-------%-------|-%-------%-------|
F#|-----------------|-----------------|-----------------|-----------------|-----------------|
C#|-----------------|-----------------|-----------------|-----------------|-----------------|


C#|-----------------|-----------------|-----------------|-----------------|-----------------|
G#|-----------------|-----------------|-----------------|-----------------|-----------------|
 E|-%-------%-------|-%-------%-------|-%-------%-------|-%-------%-------|-%-------%-------|
 B|-%-------%-------|-%-------%-------|-%-------%-------|-%-------%-------|-%-------%-------|
F#|-----------------|-----------------|-----------------|-----------------|-----------------|
C#|-----------------|-----------------|-----------------|-----------------|-----------------|


C#|-----------------|-----------------|-----------------|-----------------|-----------------|
G#|-----------------|-----------------|-----------------|-----------------|-----------------|
 E|-%-------%-------|-%-------%-------|-%-------%-------|-%-------%-------|-%-------%-------|
 B|-%-------%-------|-%-------%-------|-%-------%-------|-%-------%-------|-%-------%-------|
F#|-----------------|-----------------|-----------------|-----------------|-----------------|
C#|-----------------|-----------------|-----------------|-----------------|-----------------|


C#|-----------------|-----------------|-----------------|-----------------|-----------------|
G#|-----------------|-----------------|-----------------|-----------------|-----------------|
 E|-%-------%-------|-%-------%-------|-%-------%-------|-%-------%-------|-%-------%-------|
 B|-%-------%-------|-%-------%-------|-%-------%-------|-%-------%-------|-%-------%-------|
F#|-----------------|-----------------|-----------------|-----------------|-----------------|
C#|-----------------|-----------------|-----------------|-----------------|-----------------|


C#|-----------------|-----------------|-----------------|-----------------|-----------------|
G#|-----------------|-----------------|-----------------|-----------------|-----------------|
 E|-%-------%-------|-%-------%-------|-%-------%-------|-%-------%-------|-%-------%-------|
 B|-%-------%-------|-%-------%-------|-%-------%-------|-%-------%-------|-%-------%-------|
F#|-----------------|-----------------|-----------------|-----------------|-----------------|
C#|-----------------|-----------------|-----------------|-----------------|-----------------|


C#|-----------------|-----------------|-----------------|-----------------|-----------------|
G#|-----------------|-----------------|-----------------|-----------------|-----------------|
 E|-%-------%-------|-%-------%-------|-%-------%-------|-%-------%-------|-%-------%-------|
 B|-%-------%-------|-%-------%-------|-%-------%-------|-%-------%-------|-%-------%-------|
F#|-----------------|-----------------|-----------------|-----------------|-----------------|
C#|-----------------|-----------------|-----------------|-----------------|-----------------|


C#|-----------------|-----------------|-----------------|-----------------|-----------------|
G#|-----------------|-----------------|-----------------|-----------------|-----------------|
 E|-%-------%-------|-%-------%-------|-%-------%-------|-%-------%-------|-%-------%-------|
 B|-%-------%-------|-%-------%-------|-%-------%-------|-%-------%-------|-%-------%-------|
F#|-----------------|-----------------|-----------------|-----------------|-----------------|
C#|-----------------|-----------------|-----------------|-----------------|-----------------|


C#|-----------------|-----------------|-----------------|-----------------|-----------------|
G#|-----------------|-----------------|-----------------|-----------------|-----------------|
 E|-%-------%-------|-%-------%-------|-%-------%-------|-%-------%-------|-%-------%-------|
 B|-%-------%-------|-%-------%-------|-%-------%-------|-%-------%-------|-%-------%-------|
F#|-----------------|-----------------|-----------------|-----------------|-----------------|
C#|-----------------|-----------------|-----------------|-----------------|-----------------|


C#|-----------------|-----------------|
G#|-----------------|-----------------|
 E|-%-------%-------|-%-------%-------|
 B|-%-------%-------|-%-------%-------|
F#|-----------------|-----------------|
C#|-----------------|-----------------|

    

Nézd meg a videót és ismerd meg a leggyorsabb utat, hogyan tanulhatod meg kedvenc számaid gitáron!