Hogyan játszd el gitáron a Mtley Cre – Without You dalt?

Mtley Cre Without You – GITÁR PRO TAB, KOTTA, AKKORDOK

Kotta típusa: Vocal

(Általában egy zeneszám minden kottája: gitár, szólógitár, basszusgitár, ének, zongora, dob stb. megtalálható az oldalon, de mindegyik egy külön bejegyzésben. Ha egy másik hangszer gitártabos kottáját keresed, akkor az oldal alján vagy a keresőben megtalálod. Sokszor a zenekar tagjának a neve lesz a kotta kategóriája.)

        


E|---------|---------|---------|---------|-------------17--17---|-19--------19--19---17--15--------------|
B|---------|---------|---------|---------|----------------------|------------------------------------15--|
G|-%-------|-%-------|-%-------|-%-------|-%-------%------------|-------%----------------------%---------|
D|-%-------|-%-------|-%-------|-%-------|-%-------%------------|-------%----------------------%---------|
A|---------|---------|---------|---------|----------------------|----------------------------------------|
E|---------|---------|---------|---------|----------------------|----------------------------------------|


E|-19---19--17--19--22-------------------------19--19--|-20--19-------15-------15----15--15--15-15-15---17--|
B|----------------------22---20------------------------|----------17------17--------------------------------|
G|--------------------------------21--19--%------------|----------------------------------------------------|
D|----------------------------------------%------------|----------------------------------------------------|
A|-----------------------------------------------------|----------------------------------------------------|
E|-----------------------------------------------------|----------------------------------------------------|


E|----------------------17---17--|-19--------19--19---17--15--------------|-19---19--17--19--22-------------------------19--19--|
B|-17--15------------------------|------------------------------------15--|----------------------22---20------------------------|
G|-----------%------%------------|-------%----------------------%---------|--------------------------------21--19--%------------|
D|-----------%------%------------|-------%----------------------%---------|----------------------------------------%------------|
A|-------------------------------|----------------------------------------|-----------------------------------------------------|
E|-------------------------------|----------------------------------------|-----------------------------------------------------|


E|-20---19--------15----15--12--15--15---15-15-|-12--10----10--------------|------24--24---24---------22--22----22------|
B|------------17-------------------------------|---------------------------|------25--25---25---------24--24----24------|
G|---------------------------------------------|---------------%------%----|-%-------------------%------------------24--|
D|---------------------------------------------|---------------%------%----|-%-------------------%----------------------|
A|---------------------------------------------|---------------------------|--------------------------------------------|
E|---------------------------------------------|---------------------------|--------------------------------------------|


E|----------------------------------------|------24--24---24--26---22------------------|
B|-23-------23---------22------22---------|------25--25---25--27---24----24------------|
G|------24--------24-------24-------%-----|-%----------------------------24---%--------|
D|----------------------------------%-----|-%---------------------------------%----24--|
A|----------------------------------------|--------------------------------------------|
E|----------------------------------------|--------------------------------------------|


E|-------------------------------------------|-19--------19--19---17--15--------------|
B|-23-------------------------------22--22---|------------------------------------15--|
G|------24--24---24--24---%-----%------------|-------%----------------------%---------|
D|------------------------%-----%------------|-------%----------------------%---------|
A|-------------------------------------------|----------------------------------------|
E|-------------------------------------------|----------------------------------------|


E|-19---19---19---19--17--15----------22--|-24--22-------20-------19---------------------------|
B|------------------------------------24--|-25--24---24--20--20---20----20------20--20---20-20-|
G|------------------------------%---------|----------24------21-------------21-----------------|
D|------------------------------%---------|----------------------------------------------------|
A|----------------------------------------|----------------------------------------------------|
E|----------------------------------------|----------------------------------------------------|


E|------------------------22--|-24---22---20-------19---------------------------|-----------------------19--19--|
B|------------------------24--|-25---24---20--20---20----20------20--20---20-20-|-------------------------------|
G|-21--19----%------%---------|---------------21-------------21-----------------|-21--19----%------%------------|
D|-----------%------%---------|-------------------------------------------------|-----------%------%------------|
A|----------------------------|-------------------------------------------------|-------------------------------|
E|----------------------------|-------------------------------------------------|-------------------------------|


E|-20---19------------20----20--------|---------|---------|-------------17--17---|-19---19-------19--19---17--15--------------|
B|-----------20-----------------------|---------|---------|----------------------|----------------------------------------15--|
G|---------------21-------------%-----|-%-------|-%-------|-%-------%------------|-----------%----------------------%---------|
D|------------------------------%-----|-%-------|-%-------|-%-------%------------|-----------%----------------------%---------|
A|------------------------------------|---------|---------|----------------------|--------------------------------------------|
E|------------------------------------|---------|---------|----------------------|--------------------------------------------|


E|-19---19---22--24--------------------------|-20--19---------------------------------------------|
B|-------------------24--22--24---------24---|----------20-----------------20------20--20---20-20-|
G|--------------------------------%----------|---------------21--21---%--------21-----------------|
D|--------------------------------%----------|------------------------%---------------------------|
A|-------------------------------------------|----------------------------------------------------|
E|-------------------------------------------|----------------------------------------------------|


E|---------------------------|------24--24---24---------22--22----22------|----------------------------------------|
B|---------------------------|------25--25---25---------24--24----24------|-23-------23---------22------22---------|
G|-21--19----19--%------%----|-%-------------------%------------------24--|------24--------24-------24-------%-----|
D|---------------%------%----|-%-------------------%----------------------|----------------------------------%-----|
A|---------------------------|--------------------------------------------|----------------------------------------|
E|---------------------------|--------------------------------------------|----------------------------------------|


E|------24--24---24--26---22------------------|-------------------------------------------|
B|------25--25---25--27---24----24------------|-23-------------------------------22--22---|
G|-%----------------------------24---%--------|------24--24---24--24---%-----%------------|
D|-%---------------------------------%----24--|------------------------%-----%------------|
A|--------------------------------------------|-------------------------------------------|
E|--------------------------------------------|-------------------------------------------|


E|-19--------19--19---17--15--------------|-19---19---19---19--17--15----------22--|
B|------------------------------------15--|------------------------------------24--|
G|-------%----------------------%---------|------------------------------%---------|
D|-------%----------------------%---------|------------------------------%---------|
A|----------------------------------------|----------------------------------------|
E|----------------------------------------|----------------------------------------|


E|-24--22-------20-------19---------------------------|------------------------22--|
B|-25--24---24--20--20---20----20------20--20---20-20-|------------------------24--|
G|----------24------21-------------21-----------------|-21--19----%------%---------|
D|----------------------------------------------------|-----------%------%---------|
A|----------------------------------------------------|----------------------------|
E|----------------------------------------------------|----------------------------|


E|-24---22---20-------19---------------------------|-----------------------19--19--|
B|-25---24---20--20---20----20------20--20---20-20-|-------------------------------|
G|---------------21-------------21-----------------|-21--19----%------%------------|
D|-------------------------------------------------|-----------%------%------------|
A|-------------------------------------------------|-------------------------------|
E|-------------------------------------------------|-------------------------------|


E|-20---19------------20----20--------|-----------------------19---17--------17--16--17--|
B|-----------20-----------------------|------22--22--22---22-----------------------------|
G|---------------21-------------%-----|-%--------------------------------%---------------|
D|------------------------------%-----|-%--------------------------------%---------------|
A|------------------------------------|--------------------------------------------------|
E|------------------------------------|--------------------------------------------------|


E|-20---19----------------------------|------17--17--17---17--19---19--17--------17--19--|
B|-----------20---20--20--------------|--------------------------------------------------|
G|------------------------19---%------|-%-----------------------------------%------------|
D|-----------------------------%------|-%-----------------------------------%------------|
A|------------------------------------|--------------------------------------------------|
E|------------------------------------|--------------------------------------------------|


E|-20---19----------------17--19---------|------22--22--22--22--22--21---21---21-----------19--|
B|-----------20--20---20-----------------|------22--22--22--22--22--22---22---24--22---22--19--|
G|--------------------------------%------|-%--------------------------------------21---21------|
D|--------------------------------%------|-%---------------------------------------------------|
A|---------------------------------------|-----------------------------------------------------|
E|---------------------------------------|-----------------------------------------------------|


E|-20-----------------20--19--------------------|------22--22--22--22--22--21---21--21--21----------19---|
B|-22---------20--20--20--20--------------------|------22--22--22--22--22--22---22--22--24--22--22--19---|
G|------%-----19--19----------21--19---%-----%--|-%-----------------------------------------21--21-------|
D|------%------------------------------%-----%--|-%------------------------------------------------------|
A|----------------------------------------------|--------------------------------------------------------|
E|----------------------------------------------|--------------------------------------------------------|


E|-20---------------------------------|---------|---------|---------|---------|---------|
B|-22----20--20--20---20--------------|---------|---------|---------|---------|---------|
G|-------19--19--19---19--19---%------|-%-------|-%-------|-%-------|-%-------|-%-------|
D|------------------------21---%------|-%-------|-%-------|-%-------|-%-------|-%-------|
A|------------------------------------|---------|---------|---------|---------|---------|
E|------------------------------------|---------|---------|---------|---------|---------|


E|---------|---------|--------------17--17--|-19--------19--19---17--15--------------|
B|---------|---------|----------------------|------------------------------------15--|
G|-%-------|-%-------|-%-------%------------|-------%----------------------%---------|
D|-%-------|-%-------|-%-------%------------|-------%----------------------%---------|
A|---------|---------|----------------------|----------------------------------------|
E|---------|---------|----------------------|----------------------------------------|


E|-19---19---19---19--17--15----------22--|-24--22-------20--19---19---------------------------|
B|------------------------------------24--|-25--24---24--20-------20----20------20--20---20-20-|
G|------------------------------%---------|----------24------21-------------21-----------------|
D|------------------------------%---------|----------------------------------------------------|
A|----------------------------------------|----------------------------------------------------|
E|----------------------------------------|----------------------------------------------------|


E|------------------------22--|-24---22---20--19---19---------------------------|-----------------------19--19--|
B|------------------------24--|-25---24---20-------20----20------20--20---20-20-|-------------------------------|
G|-21--19----%------%---------|---------------21-------------21-----------------|-21--19----%------%------------|
D|-----------%------%---------|-------------------------------------------------|-----------%------%------------|
A|----------------------------|-------------------------------------------------|-------------------------------|
E|----------------------------|-------------------------------------------------|-------------------------------|


E|-20---19------------20-----20--|---------|
B|-----------20------------------|---------|
G|---------------21--------------|-%-------|
D|-------------------------------|-%-------|
A|-------------------------------|---------|
E|-------------------------------|---------|

    

Nézd meg a videót és ismerd meg a leggyorsabb utat, hogyan tanulhatod meg kedvenc számaid gitáron!