Hogyan játszd el gitáron a Unknown Artist – Angels Of Time dalt?

Unknown Artist Angels Of Time – GITÁR PRO TAB, KOTTA, AKKORDOK

Kotta típusa: Guit1

(Általában egy zeneszám minden kottája: gitár, szólógitár, basszusgitár, ének, zongora, dob stb. megtalálható az oldalon, de mindegyik egy külön bejegyzésben. Ha egy másik hangszer gitártabos kottáját keresed, akkor az oldal alján vagy a keresőben megtalálod. Sokszor a zenekar tagjának a neve lesz a kotta kategóriája.)

        


E|--------------------------------------------|--------------------------------------------|
B|--------------------------------------------|--------------------------------------------|
G|--------------------------------------------|--------------------------------------------|
D|-----------9---10--9----10---9----7---------|-----------9---10--9----10---9----7---------|
A|-7----10-------------------------------10---|-7----10-------------------------------10---|
E|--------------------------------------------|--------------------------------------------|


E|--------------------------------------------|--------------------------------------------|
B|--------------------------------------------|--------------------------------------------|
G|--------------------------------------------|--------------------------------------------|
D|-----------9---10--9----10---9----7---------|-9---10--9----10---9----7----10---9---------|
A|-7----10-------------------------------10---|---------------------------------------10---|
E|--------------------------------------------|--------------------------------------------|


E|--------------------------------------------|--------------------------------------------|
B|--------------------------------------------|--------------------------------------------|
G|--------------------------------------------|--------------------------------------------|
D|-----------9---10--9----10---9----7---------|-----------9---10--9----10---9----7---------|
A|-7----10-------------------------------10---|-7----10-------------------------------10---|
E|--------------------------------------------|--------------------------------------------|


E|--------------------------------------------|--------------------------------------------|
B|--------------------------------------------|--------------------------------------------|
G|--------------------------------------------|--------------------------------------------|
D|-----------9---10--9----10---9----7---------|-9---10--9----10---9----7----10---9---------|
A|-7----10-------------------------------10---|---------------------------------------10---|
E|--------------------------------------------|--------------------------------------------|


E|--------------------------------------------|--------------------------------------------|
B|--------------------------------------------|--------------------------------------------|
G|--------------------------------------------|--------------------------------------------|
D|-----------9---10--9----10---9----7---------|-----------9---10--9----10---9----7---------|
A|-7----10-------------------------------10---|-7----10-------------------------------10---|
E|--------------------------------------------|--------------------------------------------|


E|--------------------------------------------|--------------------------------------------|
B|--------------------------------------------|--------------------------------------------|
G|--------------------------------------------|--------------------------------------------|
D|-----------9---10--9----10---9----7---------|-9---10--9----10---9----7----10---9---------|
A|-7----10-------------------------------10---|---------------------------------------10---|
E|--------------------------------------------|--------------------------------------------|


E|--------------------------------------------|--------------------------------------------|
B|--------------------------------------------|--------------------------------------------|
G|--------------------------------------------|--------------------------------------------|
D|-----------9---10--9----10---9----7---------|-----------9---10--9----10---9----7---------|
A|-7----10-------------------------------10---|-7----10-------------------------------10---|
E|--------------------------------------------|--------------------------------------------|


E|--------------------------------------------|--------------------------------------------|
B|--------------------------------------------|--------------------------------------------|
G|--------------------------------------------|--------------------------------------------|
D|-----------9---10--9----10---9----7---------|-9---10--9----10---9----7----10---9---------|
A|-7----10-------------------------------10---|---------------------------------------10---|
E|--------------------------------------------|--------------------------------------------|


E|-------------------------------------|----------------------------|-------------------------------------|
B|-------------------------------------|----------------------------|-------------------------------------|
G|-5-----------------------------------|-7----5----2------4----4----|-5-----------------------------------|
D|-5-----------------------------------|-7----5----2------4----4----|-5-----------------------------------|
A|-3-----3----3----3----3----3----3----|-5----3----0------2----2----|-3-----3----3----3----3----3----3----|
E|-------------------------------------|----------------------------|-------------------------------------|


E|----------------------------|---------|-------------------------|---------|-------------------------|
B|----------------------------|---------|-------------------------|---------|-------------------------|
G|-7----5----2------4----4----|---------|-------------------------|---------|-------------------------|
D|-7----5----2------4----4----|-5-------|-5-----5-----------------|-7-------|-7-----7-----7-----7-----|
A|-5----3----0------2----2----|-5-------|-5-----5-----5-----------|-7-------|-7-----7-----7-----------|
E|----------------------------|-3-------|-3-----3-----3-----3-----|-5-------|-5-----5-----------------|


E|-------------------------------------|----------------------------|-------------------------------------|
B|-------------------------------------|----------------------------|-------------------------------------|
G|-5-----------------------------------|-7----5----2------4----4----|-5-----------------------------------|
D|-5-----------------------------------|-7----5----2------4----4----|-5-----------------------------------|
A|-3-----3----3----3----3----3----3----|-5----3----0------2----2----|-3-----3----3----3----3----3----3----|
E|-------------------------------------|----------------------------|-------------------------------------|


E|----------------------------|---------|-------------------------|---------|-------------------------|
B|----------------------------|---------|-------------------------|---------|-------------------------|
G|-7----5----2------4----4----|---------|-------------------------|---------|-------------------------|
D|-7----5----2------4----4----|-5-------|-5-----5-----------------|-7-------|-7-----7-----7-----7-----|
A|-5----3----0------2----2----|-5-------|-5-----5-----5-----------|-7-------|-7-----7-----7-----------|
E|----------------------------|-3-------|-3-----3-----3-----3-----|-5-------|-5-----5-----------------|


E|--------------------------------------------|--------------------------------------------|
B|-----------------------------12---12---12---|-10-----------------------------------------|
G|-9---------9----12--11--12------------------|------11--12--11---9-------------------9----|
D|------9-------------------------------------|------------------------9----10---12--------|
A|--------------------------------------------|--------------------------------------------|
E|--------------------------------------------|--------------------------------------------|


E|--------------------------------------------|--------------------------------------------|
B|-----------------------------12---12---12---|-10-----------------------------------------|
G|-9---------9----12--11--12------------------|------11--12--11---9-------------------9----|
D|------9-------------------------------------|------------------------9----10---12--------|
A|--------------------------------------------|--------------------------------------------|
E|--------------------------------------------|--------------------------------------------|


E|--------------------------------------------|--------------------------------------------|
B|-----------------------------12---12---12---|-10-----------------------------------------|
G|-9---------9----12--11--12------------------|------11--12--11---9-------------------9----|
D|------9-------------------------------------|------------------------9----10---12--------|
A|--------------------------------------------|--------------------------------------------|
E|--------------------------------------------|--------------------------------------------|


E|--------------------------------------------|--------------------------------------------|
B|-----------------------------12---12---12---|-------------------12---12---10---8---------|
G|-9---------9----12--11--12------------------|-9----12--11--12-----------------------9----|
D|------9-------------------------------------|--------------------------------------------|
A|--------------------------------------------|--------------------------------------------|
E|--------------------------------------------|--------------------------------------------|


E|--------------------------------------------|--------------------------------------------|
B|-----------------------------12---12---12---|-10-----------------------------------------|
G|-9---------9----12--11--12------------------|------11--12--11---9-------------------9----|
D|------9-------------------------------------|------------------------9----10---12--------|
A|--------------------------------------------|--------------------------------------------|
E|--------------------------------------------|--------------------------------------------|


E|--------------------------------------------|--------------------------------------------|
B|-----------------------------12---12---12---|-10-----------------------------------------|
G|-9---------9----12--11--12------------------|------11--12--11---9-------------------9----|
D|------9-------------------------------------|------------------------9----10---12--------|
A|--------------------------------------------|--------------------------------------------|
E|--------------------------------------------|--------------------------------------------|


E|--------------------------------------------|--------------------------------------------|
B|-----------------------------12---12---12---|-10-----------------------------------------|
G|-9---------9----12--11--12------------------|------11--12--11---9-------------------9----|
D|------9-------------------------------------|------------------------9----10---12--------|
A|--------------------------------------------|--------------------------------------------|
E|--------------------------------------------|--------------------------------------------|


E|--------------------------------------------|--------------------------------------------|
B|-----------------------------12---12---12---|-------------------12---12---10---8---------|
G|-9---------9----12--11--12------------------|-9----12--11--12-----------------------9----|
D|------9-------------------------------------|--------------------------------------------|
A|--------------------------------------------|--------------------------------------------|
E|--------------------------------------------|--------------------------------------------|


E|--------------------------------------------|--------------------------------------------|
B|-----------------------------12---12---12---|-10-----------------------------------------|
G|-9---------9----12--11--12------------------|------11--12--11---9-------------------9----|
D|------9-------------------------------------|------------------------9----10---12--------|
A|--------------------------------------------|--------------------------------------------|
E|--------------------------------------------|--------------------------------------------|


E|--------------------------------------------|--------------------------------------------|
B|-----------------------------12---12---12---|-10-----------------------------------------|
G|-9---------9----12--11--12------------------|------11--12--11---9-------------------9----|
D|------9-------------------------------------|------------------------9----10---12--------|
A|--------------------------------------------|--------------------------------------------|
E|--------------------------------------------|--------------------------------------------|


E|--------------------------------------------|--------------------------------------------|
B|-----------------------------12---12---12---|-10-----------------------------------------|
G|-9---------9----12--11--12------------------|------11--12--11---9-------------------9----|
D|------9-------------------------------------|------------------------9----10---12--------|
A|--------------------------------------------|--------------------------------------------|
E|--------------------------------------------|--------------------------------------------|


E|--------------------------------------------|--------------------------------------------|
B|-----------------------------12---12---12---|-------------------12---12---10---8---------|
G|-9---------9----12--11--12------------------|-9----12--11--12-----------------------9----|
D|------9-------------------------------------|--------------------------------------------|
A|--------------------------------------------|--------------------------------------------|
E|--------------------------------------------|--------------------------------------------|


E|---------|-------------------------|---------|-------------------------|---------|
B|---------|-------------------------|---------|-------------------------|---------|
G|---------|-------------------------|---------|-------------------------|---------|
D|-5-------|-5-----5-----------------|-7-------|-7-----7-----7-----7-----|-5-------|
A|-5-------|-5-----5-----5-----------|-7-------|-7-----7-----7-----------|-5-------|
E|-3-------|-3-----3-----3-----3-----|-5-------|-5-----5-----------------|-3-------|


E|-------------------------|---------|-------------------------|---------|-------------------------|
B|-------------------------|---------|-------------------------|---------|-------------------------|
G|-------------------------|---------|-------------------------|---------|-------------------------|
D|-5-----5-----------------|-7-------|-7-----7-----7-----7-----|-5-------|-5-----5-----------------|
A|-5-----5-----5-----------|-7-------|-7-----7-----7-----------|-5-------|-5-----5-----5-----------|
E|-3-----3-----3-----3-----|-5-------|-5-----5-----------------|-3-------|-3-----3-----3-----3-----|


E|---------|-------------------------|---------|-------------------------|---------|
B|---------|-------------------------|---------|-------------------------|---------|
G|---------|-------------------------|---------|-------------------------|---------|
D|-7-------|-7-----7-----7-----7-----|-5-------|-5-----5-----------------|-7-------|
A|-7-------|-7-----7-----7-----------|-5-------|-5-----5-----5-----------|-7-------|
E|-5-------|-5-----5-----------------|-3-------|-3-----3-----3-----3-----|-5-------|


E|-------------------------|--------------------------------------------|--------------------------------------------|
B|-------------------------|-----------------------------12---12---12---|-10-----------------------------------------|
G|-------------------------|-9---------9----12--11--12------------------|------11--12--11---9-------------------9----|
D|-7-----7-----7-----7-----|------9-------------------------------------|------------------------9----10---12--------|
A|-7-----7-----7-----------|--------------------------------------------|--------------------------------------------|
E|-5-----5-----------------|--------------------------------------------|--------------------------------------------|


E|--------------------------------------------|--------------------------------------------|
B|-----------------------------12---12---12---|-10-----------------------------------------|
G|-9---------9----12--11--12------------------|------11--12--11---9-------------------9----|
D|------9-------------------------------------|------------------------9----10---12--------|
A|--------------------------------------------|--------------------------------------------|
E|--------------------------------------------|--------------------------------------------|


E|--------------------------------------------|--------------------------------------------|
B|-----------------------------12---12---12---|-10-----------------------------------------|
G|-9---------9----12--11--12------------------|------11--12--11---9-------------------9----|
D|------9-------------------------------------|------------------------9----10---12--------|
A|--------------------------------------------|--------------------------------------------|
E|--------------------------------------------|--------------------------------------------|


E|--------------------------------------------|--------------------------------------------|
B|-----------------------------12---12---12---|-------------------12---12---10---8---------|
G|-9---------9----12--11--12------------------|-9----12--11--12-----------------------9----|
D|------9-------------------------------------|--------------------------------------------|
A|--------------------------------------------|--------------------------------------------|
E|--------------------------------------------|--------------------------------------------|


E|--------------------------------------------|--------------------------------------------|
B|-----------------------------12---12---12---|-10-----------------------------------------|
G|-9---------9----12--11--12------------------|------11--12--11---9-------------------9----|
D|------9-------------------------------------|------------------------9----10---12--------|
A|--------------------------------------------|--------------------------------------------|
E|--------------------------------------------|--------------------------------------------|


E|--------------------------------------------|--------------------------------------------|
B|-----------------------------12---12---12---|-10-----------------------------------------|
G|-9---------9----12--11--12------------------|------11--12--11---9-------------------9----|
D|------9-------------------------------------|------------------------9----10---12--------|
A|--------------------------------------------|--------------------------------------------|
E|--------------------------------------------|--------------------------------------------|


E|--------------------------------------------|--------------------------------------------|
B|-----------------------------12---12---12---|-10-----------------------------------------|
G|-9---------9----12--11--12------------------|------11--12--11---9-------------------9----|
D|------9-------------------------------------|------------------------9----10---12--------|
A|--------------------------------------------|--------------------------------------------|
E|--------------------------------------------|--------------------------------------------|


E|--------------------------------------------|--------------------------------------------|
B|-----------------------------12---12---12---|-------------------12---12---10---8---------|
G|-9---------9----12--11--12------------------|-9----12--11--12-----------------------9----|
D|------9-------------------------------------|--------------------------------------------|
A|--------------------------------------------|--------------------------------------------|
E|--------------------------------------------|--------------------------------------------|


E|--------------------------------------------|--------------------------------------------|
B|-----------------------------12---12---12---|-10-----------------------------------------|
G|-9---------9----12--11--12------------------|------11--12--11---9-------------------9----|
D|------9-------------------------------------|------------------------9----10---12--------|
A|--------------------------------------------|--------------------------------------------|
E|--------------------------------------------|--------------------------------------------|


E|--------------------------------------------|--------------------------------------------|
B|-----------------------------12---12---12---|-10-----------------------------------------|
G|-9---------9----12--11--12------------------|------11--12--11---9-------------------9----|
D|------9-------------------------------------|------------------------9----10---12--------|
A|--------------------------------------------|--------------------------------------------|
E|--------------------------------------------|--------------------------------------------|


E|--------------------------------------------|--------------------------------------------|
B|-----------------------------12---12---12---|-10-----------------------------------------|
G|-9---------9----12--11--12------------------|------11--12--11---9-------------------9----|
D|------9-------------------------------------|------------------------9----10---12--------|
A|--------------------------------------------|--------------------------------------------|
E|--------------------------------------------|--------------------------------------------|


E|--------------------------------------------|--------------------------------------------|
B|-----------------------------12---12---12---|-------------------12---12---10---8---------|
G|-9---------9----12--11--12------------------|-9----12--11--12-----------------------9----|
D|------9-------------------------------------|--------------------------------------------|
A|--------------------------------------------|--------------------------------------------|
E|--------------------------------------------|--------------------------------------------|


E|-------------------------------------|----------------------------|-------------------------------------|
B|-------------------------------------|----------------------------|-------------------------------------|
G|-5-----------------------------------|-7----5----2------4----4----|-5-----------------------------------|
D|-5-----------------------------------|-7----5----2------4----4----|-5-----------------------------------|
A|-3-----3----3----3----3----3----3----|-5----3----0------2----2----|-3-----3----3----3----3----3----3----|
E|-------------------------------------|----------------------------|-------------------------------------|


E|----------------------------|---------|-------------------------|---------|-------------------------|
B|----------------------------|---------|-------------------------|---------|-------------------------|
G|-7----5----2------4----4----|---------|-------------------------|---------|-------------------------|
D|-7----5----2------4----4----|-5-------|-5-----5-----------------|-7-------|-7-----7-----7-----7-----|
A|-5----3----0------2----2----|-5-------|-5-----5-----5-----------|-7-------|-7-----7-----7-----------|
E|----------------------------|-3-------|-3-----3-----3-----3-----|-5-------|-5-----5-----------------|


E|-------------------------------------|----------------------------|-------------------------------------|
B|-------------------------------------|----------------------------|-------------------------------------|
G|-5-----------------------------------|-7----5----2------4----4----|-5-----------------------------------|
D|-5-----------------------------------|-7----5----2------4----4----|-5-----------------------------------|
A|-3-----3----3----3----3----3----3----|-5----3----0------2----2----|-3-----3----3----3----3----3----3----|
E|-------------------------------------|----------------------------|-------------------------------------|


E|----------------------------|---------|-------------------------|---------|-------------------------|
B|----------------------------|---------|-------------------------|---------|-------------------------|
G|-7----5----2------4----4----|---------|-------------------------|---------|-------------------------|
D|-7----5----2------4----4----|-5-------|-5-----5-----------------|-7-------|-7-----7-----7-----7-----|
A|-5----3----0------2----2----|-5-------|-5-----5-----5-----------|-7-------|-7-----7-----7-----------|
E|----------------------------|-3-------|-3-----3-----3-----3-----|-5-------|-5-----5-----------------|


E|-----------------------------------------|-----------------------------------------|
B|-----------------------------------------|-----------------------------------------|
G|-----------------------------------------|-----------------------------------------|
D|-----------------------------------------|-----------------------------------------|
A|-4--------------4--------------4----4----|-4--------------4--------------4----4----|
E|-2----2----2----2----2----2----2----2----|-2----2----2----2----2----2----2----2----|


E|-----------------------------------------|-----------------------------------------|
B|-----------------------------------------|-----------------------------------------|
G|-----------------------------------------|-----------------------------------------|
D|-7--------------7--------------7----9----|-7--------------7--------------7----9----|
A|-5----5----5----5----5----5----5----7----|-5----5----5----5----5----5----5----7----|
E|-----------------------------------------|-----------------------------------------|


E|-----------------------------------------|-----------------------------------------|
B|-----------------------------------------|-----------------------------------------|
G|-----------------------------------------|-----------------------------------------|
D|-----------------------------------------|-----------------------------------------|
A|-4--------------4--------------4----4----|-4--------------4--------------4----4----|
E|-2----2----2----2----2----2----2----2----|-2----2----2----2----2----2----2----2----|


E|-----------------------------------------|-----------------------------------------|
B|-----------------------------------------|-----------------------------------------|
G|-----------------------------------------|-----------------------------------------|
D|-7--------------7--------------7----9----|-7--------------7--------------7----9----|
A|-5----5----5----5----5----5----5----7----|-5----5----5----5----5----5----5----7----|
E|-----------------------------------------|-----------------------------------------|


E|-----------------------------------------|-----------------------------------------|
B|-----------------------------------------|-----------------------------------------|
G|-----------------------------------------|-----------------------------------------|
D|-----------------------------------------|-----------------------------------------|
A|-4--------------4--------------4----4----|-4--------------4--------------4----4----|
E|-2----2----2----2----2----2----2----2----|-2----2----2----2----2----2----2----2----|


E|-----------------------------------------|-----------------------------------------|
B|-----------------------------------------|-----------------------------------------|
G|-----------------------------------------|-----------------------------------------|
D|-7--------------7--------------7----9----|-7--------------7--------------7----9----|
A|-5----5----5----5----5----5----5----7----|-5----5----5----5----5----5----5----7----|
E|-----------------------------------------|-----------------------------------------|


E|-----------------------------------------|-----------------------------------------|
B|-----------------------------------------|-----------------------------------------|
G|-----------------------------------------|-----------------------------------------|
D|-----------------------------------------|-----------------------------------------|
A|-4--------------4--------------4----4----|-4--------------4--------------4----4----|
E|-2----2----2----2----2----2----2----2----|-2----2----2----2----2----2----2----2----|


E|-----------------------------------------|-----------------------------------------|
B|-----------------------------------------|-----------------------------------------|
G|-----------------------------------------|-----------------------------------------|
D|-7--------------7--------------7----9----|-7--------------7--------------7----9----|
A|-5----5----5----5----5----5----5----7----|-5----5----5----5----5----5----5----7----|
E|-----------------------------------------|-----------------------------------------|


E|-----------------------------------------|-----------------------------------------|
B|-----------------------------------------|-----------------------------------------|
G|-----------------------------------------|-----------------------------------------|
D|-7--------------7--------------7----5----|-3--------------3--------------3----5----|
A|-5----5----5----5----5----5----5----3----|-1----1----1----1----1----1----1----3----|
E|-----------------------------------------|-----------------------------------------|


E|-----------------------------------------|-----------------------------------------|
B|-----------------------------------------|-----------------------------------------|
G|-----------------------------------------|-----------------------------------------|
D|-7--------------7--------------7----7----|-10-------------10-----------------------|
A|-5----5----5----5----5----5----5----5----|-8----8----8----8----10-------------10---|
E|-----------------------------------------|---------------------8----8----8----8----|


E|-----------------------------------------|-----------------------------------------|
B|-----------------------------------------|-----------------------------------------|
G|-----------------------------------------|-----------------------------------------|
D|-7--------------7--------------7----5----|-3--------------3--------------3----5----|
A|-5----5----5----5----5----5----5----3----|-1----1----1----1----1----1----1----3----|
E|-----------------------------------------|-----------------------------------------|


E|-----------------------------------------|-----------------------------------------|
B|-----------------------------------------|-----------------------------------------|
G|-----------------------------------------|-----------------------------------------|
D|-7--------------7--------------7----7----|-10-------------10-----------------------|
A|-5----5----5----5----5----5----5----5----|-8----8----8----8----10-------------10---|
E|-----------------------------------------|---------------------8----8----8----8----|


E|-----------------------------------------|-----------------------------------------|
B|-----------------------------------------|-----------------------------------------|
G|-----------------------------------------|-----------------------------------------|
D|-7--------------7--------------7----5----|-3--------------3--------------3----5----|
A|-5----5----5----5----5----5----5----3----|-1----1----1----1----1----1----1----3----|
E|-----------------------------------------|-----------------------------------------|


E|-----------------------------------------|-----------------------------------------|
B|-----------------------------------------|-----------------------------------------|
G|-----------------------------------------|-----------------------------------------|
D|-7--------------7--------------7----7----|-10-------------10-----------------------|
A|-5----5----5----5----5----5----5----5----|-8----8----8----8----10-------------10---|
E|-----------------------------------------|---------------------8----8----8----8----|


E|-----------------------------------------|-----------------------------------------|
B|-----------------------------------------|-----------------------------------------|
G|-----------------------------------------|-----------------------------------------|
D|-7--------------7--------------7----5----|-3--------------3--------------3----5----|
A|-5----5----5----5----5----5----5----3----|-1----1----1----1----1----1----1----3----|
E|-----------------------------------------|-----------------------------------------|


E|-----------------------------------------|-----------------------------------------|
B|-----------------------------------------|-----------------------------------------|
G|-----------------------------------------|-----------------------------------------|
D|-7--------------7--------------7----7----|-10-------------10-----------------------|
A|-5----5----5----5----5----5----5----5----|-8----8----8----8----10-------------10---|
E|-----------------------------------------|---------------------8----8----8----8----|


E|-------------------|-------------------------------------|-------------------|-------12---12---12---10-------------|
B|---------10---12---|-13----12---13---12---10---12---10---|---------10---12---|-15------------------------13---12---|
G|-9-----------------|-------------------------------------|-9-----------------|-------------------------------------|
D|-------------------|-------------------------------------|-------------------|-------------------------------------|
A|-------------------|-------------------------------------|-------------------|-------------------------------------|
E|-------------------|-------------------------------------|-------------------|-------------------------------------|


E|-------------------|-------------------------------------|---------------|-------------------|
B|-10------12---13---|-10----12---13---12---10-------------|---------------|-7----8----10------|
G|-------------------|---------------------------12---11---|-9-------7-----|-------------------|
D|-------------------|-------------------------------------|---------------|-------------------|
A|-------------------|-------------------------------------|---------------|-------------------|
E|-------------------|-------------------------------------|---------------|-------------------|


E|-------------------|-------------------------------------|-------------------|-------12---12---12---10-------------|
B|---------10---12---|-13----12---13---12---10---12---10---|---------10---12---|-15------------------------13---12---|
G|-9-----------------|-------------------------------------|-9-----------------|-------------------------------------|
D|-------------------|-------------------------------------|-------------------|-------------------------------------|
A|-------------------|-------------------------------------|-------------------|-------------------------------------|
E|-------------------|-------------------------------------|-------------------|-------------------------------------|


E|-------------------|-------------------------------------|---------------|-------------------|
B|-10------12---13---|-10----12---13---12---10-------------|---------------|-7----8----10------|
G|-------------------|---------------------------12---11---|-9-------7-----|-------------------|
D|-------------------|-------------------------------------|---------------|-------------------|
A|-------------------|-------------------------------------|---------------|-------------------|
E|-------------------|-------------------------------------|---------------|-------------------|


E|--------------------------------------------|--------------------------------------------|
B|-----------------------------12---12---12---|-10-----------------------------------------|
G|-9---------9----12--11--12------------------|------11--12--11---9-------------------9----|
D|------9-------------------------------------|------------------------9----10---12--------|
A|--------------------------------------------|--------------------------------------------|
E|--------------------------------------------|--------------------------------------------|


E|--------------------------------------------|--------------------------------------------|
B|-----------------------------12---12---12---|-10-----------------------------------------|
G|-9---------9----12--11--12------------------|------11--12--11---9-------------------9----|
D|------9-------------------------------------|------------------------9----10---12--------|
A|--------------------------------------------|--------------------------------------------|
E|--------------------------------------------|--------------------------------------------|


E|--------------------------------------------|--------------------------------------------|
B|-----------------------------12---12---12---|-10-----------------------------------------|
G|-9---------9----12--11--12------------------|------11--12--11---9-------------------9----|
D|------9-------------------------------------|------------------------9----10---12--------|
A|--------------------------------------------|--------------------------------------------|
E|--------------------------------------------|--------------------------------------------|


E|--------------------------------------------|--------------------------------------------|
B|-----------------------------12---12---12---|-------------------12---12---10---8---------|
G|-9---------9----12--11--12------------------|-9----12--11--12-----------------------9----|
D|------9-------------------------------------|--------------------------------------------|
A|--------------------------------------------|--------------------------------------------|
E|--------------------------------------------|--------------------------------------------|


E|--------------------------------------------|--------------------------------------------|
B|-----------------------------12---12---12---|-10-----------------------------------------|
G|-9---------9----12--11--12------------------|------11--12--11---9-------------------9----|
D|------9-------------------------------------|------------------------9----10---12--------|
A|--------------------------------------------|--------------------------------------------|
E|--------------------------------------------|--------------------------------------------|


E|--------------------------------------------|--------------------------------------------|
B|-----------------------------12---12---12---|-10-----------------------------------------|
G|-9---------9----12--11--12------------------|------11--12--11---9-------------------9----|
D|------9-------------------------------------|------------------------9----10---12--------|
A|--------------------------------------------|--------------------------------------------|
E|--------------------------------------------|--------------------------------------------|


E|--------------------------------------------|--------------------------------------------|
B|-----------------------------12---12---12---|-10-----------------------------------------|
G|-9---------9----12--11--12------------------|------11--12--11---9-------------------9----|
D|------9-------------------------------------|------------------------9----10---12--------|
A|--------------------------------------------|--------------------------------------------|
E|--------------------------------------------|--------------------------------------------|


E|--------------------------------------------|--------------------------------------------|
B|-----------------------------12---12---12---|-------------------12---12---10---8---------|
G|-9---------9----12--11--12------------------|-9----12--11--12-----------------------9----|
D|------9-------------------------------------|--------------------------------------------|
A|--------------------------------------------|--------------------------------------------|
E|--------------------------------------------|--------------------------------------------|


E|--------------------------------------------|--------------------------------------------|
B|-----------------------------12---12---12---|-10-----------------------------------------|
G|-9---------9----12--11--12------------------|------11--12--11---9-------------------9----|
D|------9-------------------------------------|------------------------9----10---12--------|
A|--------------------------------------------|--------------------------------------------|
E|--------------------------------------------|--------------------------------------------|


E|--------------------------------------------|--------------------------------------------|
B|-----------------------------12---12---12---|-10-----------------------------------------|
G|-9---------9----12--11--12------------------|------11--12--11---9-------------------9----|
D|------9-------------------------------------|------------------------9----10---12--------|
A|--------------------------------------------|--------------------------------------------|
E|--------------------------------------------|--------------------------------------------|


E|--------------------------------------------|--------------------------------------------|
B|-----------------------------12---12---12---|-10-----------------------------------------|
G|-9---------9----12--11--12------------------|------11--12--11---9-------------------9----|
D|------9-------------------------------------|------------------------9----10---12--------|
A|--------------------------------------------|--------------------------------------------|
E|--------------------------------------------|--------------------------------------------|


E|--------------------------------------------|--------------------------------------------|
B|-----------------------------12---12---12---|-------------------12---12---10---8---------|
G|-9---------9----12--11--12------------------|-9----12--11--12-----------------------9----|
D|------9-------------------------------------|--------------------------------------------|
A|--------------------------------------------|--------------------------------------------|
E|--------------------------------------------|--------------------------------------------|


E|--------------------------------------------|--------------------------------------------|
B|--------------------------------------------|--------------------------------------------|
G|--------------------------------------------|--------------------------------------------|
D|-----------9---10--9----10---9----7---------|-----------9---10--9----10---9----7---------|
A|-7----10-------------------------------10---|-7----10-------------------------------10---|
E|--------------------------------------------|--------------------------------------------|


E|--------------------------------------------|--------------------------------------------|
B|--------------------------------------------|--------------------------------------------|
G|--------------------------------------------|--------------------------------------------|
D|-----------9---10--9----10---9----7---------|-9---10--9----10---9----7----10---9---------|
A|-7----10-------------------------------10---|---------------------------------------10---|
E|--------------------------------------------|--------------------------------------------|


E|--------------------------------------------|--------------------------------------------|
B|--------------------------------------------|--------------------------------------------|
G|--------------------------------------------|--------------------------------------------|
D|-----------9---10--9----10---9----7---------|-----------9---10--9----10---9----7---------|
A|-7----10-------------------------------10---|-7----10-------------------------------10---|
E|--------------------------------------------|--------------------------------------------|


E|--------------------------------------------|--------------------------------------------|
B|--------------------------------------------|--------------------------------------------|
G|--------------------------------------------|--------------------------------------------|
D|-----------9---10--9----10---9----7---------|-9---10--9----10---9----7----10---9---------|
A|-7----10-------------------------------10---|---------------------------------------10---|
E|--------------------------------------------|--------------------------------------------|


E|--------------------------------------------|--------------------------------------------|
B|--------------------------------------------|--------------------------------------------|
G|--------------------------------------------|--------------------------------------------|
D|-----------9---10--9----10---9----7---------|-----------9---10--9----10---9----7---------|
A|-7----10-------------------------------10---|-7----10-------------------------------10---|
E|--------------------------------------------|--------------------------------------------|


E|--------------------------------------------|--------------------------------------------|
B|--------------------------------------------|--------------------------------------------|
G|--------------------------------------------|--------------------------------------------|
D|-----------9---10--9----10---9----7---------|-9---10--9----10---9----7----10---9---------|
A|-7----10-------------------------------10---|---------------------------------------10---|
E|--------------------------------------------|--------------------------------------------|


E|--------------------------------------------|--------------------------------------------|
B|--------------------------------------------|--------------------------------------------|
G|--------------------------------------------|--------------------------------------------|
D|-----------9---10--9----10---9----7---------|-----------9---10--9----10---9----7---------|
A|-7----10-------------------------------10---|-7----10-------------------------------10---|
E|--------------------------------------------|--------------------------------------------|


E|--------------------------------------------|--------------------------------------------|
B|--------------------------------------------|--------------------------------------------|
G|--------------------------------------------|--------------------------------------------|
D|-----------9---10--9----10---9----7---------|-9---10--9----10---9----7----10---9---------|
A|-7----10-------------------------------10---|---------------------------------------10---|
E|--------------------------------------------|--------------------------------------------|


E|---------------|---------|
B|---------------|---------|
G|-9-----%-------|-%-------|
D|-9-----%-------|-%-------|
A|-7-------------|---------|
E|---------------|---------|

    

Nézd meg a videót és ismerd meg a leggyorsabb utat, hogyan tanulhatod meg kedvenc számaid gitáron!