Hogyan játszd el gitáron a Unknown Artist – Angels Of Time dalt?

Unknown Artist Angels Of Time – GITÁR PRO TAB, KOTTA, AKKORDOK

Kotta típusa: Guit2

(Általában egy zeneszám minden kottája: gitár, szólógitár, basszusgitár, ének, zongora, dob stb. megtalálható az oldalon, de mindegyik egy külön bejegyzésben. Ha egy másik hangszer gitártabos kottáját keresed, akkor az oldal alján vagy a keresőben megtalálod. Sokszor a zenekar tagjának a neve lesz a kotta kategóriája.)

        


E|-------------------------------------|-------------------------------------|-------------------------------------|
B|-------------------------------------|-------------------------------------|-------------------------------------|
G|-------------------------------------|-------------------------------------|-------------------------------------|
D|-9-----9----9----9----9----9----9----|-5-----5----5----5----5----5----5----|-------------------------------------|
A|-7-----7----7----7----7----7----7----|-3-----3----3----3----3----3----3----|-5-----5----5----5----5----5----5----|
E|-------------------------------------|-------------------------------------|-3-----3----3----3----3----3----3----|


E|-------------------------------------|-------------------------------------|-------------------------------------|
B|-------------------------------------|-------------------------------------|-------------------------------------|
G|-------------------------------------|-------------------------------------|-------------------------------------|
D|-2-----2----2----2----2----2----2----|-7-----7----7----7----7----7----7----|-5-----5----5----5----5----5----5----|
A|-0-----0----0----0----0----0----0----|-5-----5----5----5----5----5----5----|-3-----3----3----3----3----3----3----|
E|-------------------------------------|-------------------------------------|-------------------------------------|


E|-------------------------------------|---------|-------------------------------------|
B|-------------------------------------|---------|-------------------------------------|
G|-------------------------------------|---------|-------------------------------------|
D|-2-----2----2----2----2----2----2----|-5-------|-9-----9----9----9----9----9----9----|
A|-0-----0----0----0----0----0----0----|-5-------|-7-----7----7----7----7----7----7----|
E|-------------------------------------|-3-------|-------------------------------------|


E|-------------------------------------|-------------------------------------|-------------------------------------|
B|-------------------------------------|-------------------------------------|-------------------------------------|
G|-------------------------------------|-------------------------------------|-------------------------------------|
D|-5-----5----5----5----5----5----5----|-------------------------------------|-2-----2----2----2----2----2----2----|
A|-3-----3----3----3----3----3----3----|-5-----5----5----5----5----5----5----|-0-----0----0----0----0----0----0----|
E|-------------------------------------|-3-----3----3----3----3----3----3----|-------------------------------------|


E|-------------------------------------|-------------------------------------|-------------------------------------|
B|-------------------------------------|-------------------------------------|-------------------------------------|
G|-------------------------------------|-------------------------------------|-------------------------------------|
D|-7-----7----7----7----7----7----7----|-5-----5----5----5----5----5----5----|-2-----2----2----2----2----2----2----|
A|-5-----5----5----5----5----5----5----|-3-----3----3----3----3----3----3----|-0-----0----0----0----0----0----0----|
E|-------------------------------------|-------------------------------------|-------------------------------------|


E|---------|-------------------------------------|----------------------------|-------------------------------------|
B|---------|-------------------------------------|----------------------------|-------------------------------------|
G|---------|-5-----------------------------------|-7----5----2------4----4----|-5-----------------------------------|
D|-5-------|-5-----------------------------------|-7----5----2------4----4----|-5-----------------------------------|
A|-5-------|-3-----3----3----3----3----3----3----|-5----3----0------2----2----|-3-----3----3----3----3----3----3----|
E|-3-------|-------------------------------------|----------------------------|-------------------------------------|


E|----------------------------|---------|-------------------------|---------|-------------------------|
B|----------------------------|---------|-------------------------|---------|-------------------------|
G|-7----5----2------4----4----|---------|-------------------------|---------|-------------------------|
D|-7----5----2------4----4----|-5-------|-5-----5-----------------|-7-------|-7-----7-----7-----7-----|
A|-5----3----0------2----2----|-5-------|-5-----5-----5-----------|-7-------|-7-----7-----7-----------|
E|----------------------------|-3-------|-3-----3-----3-----3-----|-5-------|-5-----5-----------------|


E|-------------------------------------|----------------------------|-------------------------------------|
B|-------------------------------------|----------------------------|-------------------------------------|
G|-5-----------------------------------|-7----5----2------4----4----|-5-----------------------------------|
D|-5-----------------------------------|-7----5----2------4----4----|-5-----------------------------------|
A|-3-----3----3----3----3----3----3----|-5----3----0------2----2----|-3-----3----3----3----3----3----3----|
E|-------------------------------------|----------------------------|-------------------------------------|


E|----------------------------|---------|-------------------------|---------|-------------------------|
B|----------------------------|---------|-------------------------|---------|-------------------------|
G|-7----5----2------4----4----|---------|-------------------------|---------|-------------------------|
D|-7----5----2------4----4----|-5-------|-5-----5-----------------|-7-------|-7-----7-----7-----7-----|
A|-5----3----0------2----2----|-5-------|-5-----5-----5-----------|-7-------|-7-----7-----7-----------|
E|----------------------------|-3-------|-3-----3-----3-----3-----|-5-------|-5-----5-----------------|


E|--------------------------------------------|--------------------------------------------|
B|--------------------------------------------|--------------------------------------------|
G|-----------------------------4----4----4----|-2------------------------------------------|
D|-2---------2----5---4---5-------------------|------4---5---4----2-------------------2----|
A|------2-------------------------------------|------------------------2----3----5---------|
E|--------------------------------------------|--------------------------------------------|


E|--------------------------------------------|--------------------------------------------|
B|--------------------------------------------|--------------------------------------------|
G|-----------------------------4----4----4----|-2------------------------------------------|
D|-2---------2----5---4---5-------------------|------4---5---4----2-------------------2----|
A|------2-------------------------------------|------------------------2----3----5---------|
E|--------------------------------------------|--------------------------------------------|


E|--------------------------------------------|--------------------------------------------|
B|--------------------------------------------|--------------------------------------------|
G|-----------------------------4----4----4----|-2------------------------------------------|
D|-2---------2----5---4---5-------------------|------4---5---4----2-------------------2----|
A|------2-------------------------------------|------------------------2----3----5---------|
E|--------------------------------------------|--------------------------------------------|


E|--------------------------------------------|--------------------------------------------|
B|--------------------------------------------|--------------------------------------------|
G|-----------------------------4----4----4----|-------------------4----4----2----0---------|
D|-2---------2----5---4---5-------------------|-2----5---4---5------------------------2----|
A|------2-------------------------------------|--------------------------------------------|
E|--------------------------------------------|--------------------------------------------|


E|--------------------------------------------|--------------------------------------------|
B|--------------------------------------------|--------------------------------------------|
G|-----------------------------4----4----4----|-2------------------------------------------|
D|-2---------2----5---4---5-------------------|------4---5---4----2-------------------2----|
A|------2-------------------------------------|------------------------2----3----5---------|
E|--------------------------------------------|--------------------------------------------|


E|--------------------------------------------|--------------------------------------------|
B|--------------------------------------------|--------------------------------------------|
G|-----------------------------4----4----4----|-2------------------------------------------|
D|-2---------2----5---4---5-------------------|------4---5---4----2-------------------2----|
A|------2-------------------------------------|------------------------2----3----5---------|
E|--------------------------------------------|--------------------------------------------|


E|--------------------------------------------|--------------------------------------------|
B|--------------------------------------------|--------------------------------------------|
G|-----------------------------4----4----4----|-2------------------------------------------|
D|-2---------2----5---4---5-------------------|------4---5---4----2-------------------2----|
A|------2-------------------------------------|------------------------2----3----5---------|
E|--------------------------------------------|--------------------------------------------|


E|--------------------------------------------|--------------------------------------------|
B|--------------------------------------------|--------------------------------------------|
G|-----------------------------4----4----4----|-------------------4----4----2----0---------|
D|-2---------2----5---4---5-------------------|-2----5---4---5------------------------2----|
A|------2-------------------------------------|--------------------------------------------|
E|--------------------------------------------|--------------------------------------------|


E|--------------------------------------------|--------------------------------------------|
B|--------------------------------------------|--------------------------------------------|
G|-----------------------------4----4----4----|-2------------------------------------------|
D|-2---------2----5---4---5-------------------|------4---5---4----2-------------------2----|
A|------2-------------------------------------|------------------------2----3----5---------|
E|--------------------------------------------|--------------------------------------------|


E|--------------------------------------------|--------------------------------------------|
B|--------------------------------------------|--------------------------------------------|
G|-----------------------------4----4----4----|-2------------------------------------------|
D|-2---------2----5---4---5-------------------|------4---5---4----2-------------------2----|
A|------2-------------------------------------|------------------------2----3----5---------|
E|--------------------------------------------|--------------------------------------------|


E|--------------------------------------------|--------------------------------------------|
B|--------------------------------------------|--------------------------------------------|
G|-----------------------------4----4----4----|-2------------------------------------------|
D|-2---------2----5---4---5-------------------|------4---5---4----2-------------------2----|
A|------2-------------------------------------|------------------------2----3----5---------|
E|--------------------------------------------|--------------------------------------------|


E|--------------------------------------------|--------------------------------------------|
B|--------------------------------------------|--------------------------------------------|
G|-----------------------------4----4----4----|-------------------4----4----2----0---------|
D|-2---------2----5---4---5-------------------|-2----5---4---5------------------------2----|
A|------2-------------------------------------|--------------------------------------------|
E|--------------------------------------------|--------------------------------------------|


E|---------|-------------------------|---------|-------------------------|---------|
B|---------|-------------------------|---------|-------------------------|---------|
G|---------|-------------------------|---------|-------------------------|---------|
D|-5-------|-5-----5-----------------|-7-------|-7-----7-----7-----7-----|-5-------|
A|-5-------|-5-----5-----5-----------|-7-------|-7-----7-----7-----------|-5-------|
E|-3-------|-3-----3-----3-----3-----|-5-------|-5-----5-----------------|-3-------|


E|-------------------------|---------|-------------------------|---------|-------------------------|
B|-------------------------|---------|-------------------------|---------|-------------------------|
G|-------------------------|---------|-------------------------|---------|-------------------------|
D|-5-----5-----------------|-7-------|-7-----7-----7-----7-----|-5-------|-5-----5-----------------|
A|-5-----5-----5-----------|-7-------|-7-----7-----7-----------|-5-------|-5-----5-----5-----------|
E|-3-----3-----3-----3-----|-5-------|-5-----5-----------------|-3-------|-3-----3-----3-----3-----|


E|---------|-------------------------|---------|-------------------------|---------|
B|---------|-------------------------|---------|-------------------------|---------|
G|---------|-------------------------|---------|-------------------------|---------|
D|-7-------|-7-----7-----7-----7-----|-5-------|-5-----5-----------------|-7-------|
A|-7-------|-7-----7-----7-----------|-5-------|-5-----5-----5-----------|-7-------|
E|-5-------|-5-----5-----------------|-3-------|-3-----3-----3-----3-----|-5-------|


E|-------------------------|--------------------------------------------|--------------------------------------------|
B|-------------------------|--------------------------------------------|--------------------------------------------|
G|-------------------------|-----------------------------4----4----4----|-2------------------------------------------|
D|-7-----7-----7-----7-----|-2---------2----5---4---5-------------------|------4---5---4----2-------------------2----|
A|-7-----7-----7-----------|------2-------------------------------------|------------------------2----3----5---------|
E|-5-----5-----------------|--------------------------------------------|--------------------------------------------|


E|--------------------------------------------|--------------------------------------------|
B|--------------------------------------------|--------------------------------------------|
G|-----------------------------4----4----4----|-2------------------------------------------|
D|-2---------2----5---4---5-------------------|------4---5---4----2-------------------2----|
A|------2-------------------------------------|------------------------2----3----5---------|
E|--------------------------------------------|--------------------------------------------|


E|--------------------------------------------|--------------------------------------------|
B|--------------------------------------------|--------------------------------------------|
G|-----------------------------4----4----4----|-2------------------------------------------|
D|-2---------2----5---4---5-------------------|------4---5---4----2-------------------2----|
A|------2-------------------------------------|------------------------2----3----5---------|
E|--------------------------------------------|--------------------------------------------|


E|--------------------------------------------|--------------------------------------------|
B|--------------------------------------------|--------------------------------------------|
G|-----------------------------4----4----4----|-------------------4----4----2----0---------|
D|-2---------2----5---4---5-------------------|-2----5---4---5------------------------2----|
A|------2-------------------------------------|--------------------------------------------|
E|--------------------------------------------|--------------------------------------------|


E|--------------------------------------------|--------------------------------------------|
B|--------------------------------------------|--------------------------------------------|
G|-----------------------------4----4----4----|-2------------------------------------------|
D|-2---------2----5---4---5-------------------|------4---5---4----2-------------------2----|
A|------2-------------------------------------|------------------------2----3----5---------|
E|--------------------------------------------|--------------------------------------------|


E|--------------------------------------------|--------------------------------------------|
B|--------------------------------------------|--------------------------------------------|
G|-----------------------------4----4----4----|-2------------------------------------------|
D|-2---------2----5---4---5-------------------|------4---5---4----2-------------------2----|
A|------2-------------------------------------|------------------------2----3----5---------|
E|--------------------------------------------|--------------------------------------------|


E|--------------------------------------------|--------------------------------------------|
B|--------------------------------------------|--------------------------------------------|
G|-----------------------------4----4----4----|-2------------------------------------------|
D|-2---------2----5---4---5-------------------|------4---5---4----2-------------------2----|
A|------2-------------------------------------|------------------------2----3----5---------|
E|--------------------------------------------|--------------------------------------------|


E|--------------------------------------------|--------------------------------------------|
B|--------------------------------------------|--------------------------------------------|
G|-----------------------------4----4----4----|-------------------4----4----2----0---------|
D|-2---------2----5---4---5-------------------|-2----5---4---5------------------------2----|
A|------2-------------------------------------|--------------------------------------------|
E|--------------------------------------------|--------------------------------------------|


E|--------------------------------------------|--------------------------------------------|
B|--------------------------------------------|--------------------------------------------|
G|-----------------------------4----4----4----|-2------------------------------------------|
D|-2---------2----5---4---5-------------------|------4---5---4----2-------------------2----|
A|------2-------------------------------------|------------------------2----3----5---------|
E|--------------------------------------------|--------------------------------------------|


E|--------------------------------------------|--------------------------------------------|
B|--------------------------------------------|--------------------------------------------|
G|-----------------------------4----4----4----|-2------------------------------------------|
D|-2---------2----5---4---5-------------------|------4---5---4----2-------------------2----|
A|------2-------------------------------------|------------------------2----3----5---------|
E|--------------------------------------------|--------------------------------------------|


E|--------------------------------------------|--------------------------------------------|
B|--------------------------------------------|--------------------------------------------|
G|-----------------------------4----4----4----|-2------------------------------------------|
D|-2---------2----5---4---5-------------------|------4---5---4----2-------------------2----|
A|------2-------------------------------------|------------------------2----3----5---------|
E|--------------------------------------------|--------------------------------------------|


E|--------------------------------------------|--------------------------------------------|
B|--------------------------------------------|--------------------------------------------|
G|-----------------------------4----4----4----|-------------------4----4----2----0---------|
D|-2---------2----5---4---5-------------------|-2----5---4---5------------------------2----|
A|------2-------------------------------------|--------------------------------------------|
E|--------------------------------------------|--------------------------------------------|


E|-------------------------------------|----------------------------|-------------------------------------|
B|-------------------------------------|----------------------------|-------------------------------------|
G|-5-----------------------------------|-7----5----2------4----4----|-5-----------------------------------|
D|-5-----------------------------------|-7----5----2------4----4----|-5-----------------------------------|
A|-3-----3----3----3----3----3----3----|-5----3----0------2----2----|-3-----3----3----3----3----3----3----|
E|-------------------------------------|----------------------------|-------------------------------------|


E|----------------------------|---------|-------------------------|---------|-------------------------|
B|----------------------------|---------|-------------------------|---------|-------------------------|
G|-7----5----2------4----4----|---------|-------------------------|---------|-------------------------|
D|-7----5----2------4----4----|-5-------|-5-----5-----------------|-7-------|-7-----7-----7-----7-----|
A|-5----3----0------2----2----|-5-------|-5-----5-----5-----------|-7-------|-7-----7-----7-----------|
E|----------------------------|-3-------|-3-----3-----3-----3-----|-5-------|-5-----5-----------------|


E|-------------------------------------|----------------------------|-------------------------------------|
B|-------------------------------------|----------------------------|-------------------------------------|
G|-5-----------------------------------|-7----5----2------4----4----|-5-----------------------------------|
D|-5-----------------------------------|-7----5----2------4----4----|-5-----------------------------------|
A|-3-----3----3----3----3----3----3----|-5----3----0------2----2----|-3-----3----3----3----3----3----3----|
E|-------------------------------------|----------------------------|-------------------------------------|


E|----------------------------|---------|-------------------------|---------|-------------------------|
B|----------------------------|---------|-------------------------|---------|-------------------------|
G|-7----5----2------4----4----|---------|-------------------------|---------|-------------------------|
D|-7----5----2------4----4----|-5-------|-5-----5-----------------|-7-------|-7-----7-----7-----7-----|
A|-5----3----0------2----2----|-5-------|-5-----5-----5-----------|-7-------|-7-----7-----7-----------|
E|----------------------------|-3-------|-3-----3-----3-----3-----|-5-------|-5-----5-----------------|


E|-----------------------------------------|-----------------------------------------|
B|-----------------------------------------|-----------------------------------------|
G|-----------------------------------------|-----------------------------------------|
D|-----------------------------------------|-----------------------------------------|
A|-4--------------4--------------4----4----|-4--------------4--------------4----4----|
E|-2----2----2----2----2----2----2----2----|-2----2----2----2----2----2----2----2----|


E|-----------------------------------------|-----------------------------------------|
B|-----------------------------------------|-----------------------------------------|
G|-----------------------------------------|-----------------------------------------|
D|-7--------------7--------------7----9----|-7--------------7--------------7----9----|
A|-5----5----5----5----5----5----5----7----|-5----5----5----5----5----5----5----7----|
E|-----------------------------------------|-----------------------------------------|


E|-----------------------------------------|-----------------------------------------|
B|-----------------------------------------|-----------------------------------------|
G|-----------------------------------------|-----------------------------------------|
D|-----------------------------------------|-----------------------------------------|
A|-4--------------4--------------4----4----|-4--------------4--------------4----4----|
E|-2----2----2----2----2----2----2----2----|-2----2----2----2----2----2----2----2----|


E|-----------------------------------------|-----------------------------------------|
B|-----------------------------------------|-----------------------------------------|
G|-----------------------------------------|-----------------------------------------|
D|-7--------------7--------------7----9----|-7--------------7--------------7----9----|
A|-5----5----5----5----5----5----5----7----|-5----5----5----5----5----5----5----7----|
E|-----------------------------------------|-----------------------------------------|


E|-----------------------------------------|-----------------------------------------|
B|-----------------------------------------|-----------------------------------------|
G|-----------------------------------------|-----------------------------------------|
D|-----------------------------------------|-----------------------------------------|
A|-4--------------4--------------4----4----|-4--------------4--------------4----4----|
E|-2----2----2----2----2----2----2----2----|-2----2----2----2----2----2----2----2----|


E|-----------------------------------------|-----------------------------------------|
B|-----------------------------------------|-----------------------------------------|
G|-----------------------------------------|-----------------------------------------|
D|-7--------------7--------------7----9----|-7--------------7--------------7----9----|
A|-5----5----5----5----5----5----5----7----|-5----5----5----5----5----5----5----7----|
E|-----------------------------------------|-----------------------------------------|


E|-----------------------------------------|-----------------------------------------|
B|-----------------------------------------|-----------------------------------------|
G|-----------------------------------------|-----------------------------------------|
D|-----------------------------------------|-----------------------------------------|
A|-4--------------4--------------4----4----|-4--------------4--------------4----4----|
E|-2----2----2----2----2----2----2----2----|-2----2----2----2----2----2----2----2----|


E|-----------------------------------------|-----------------------------------------|
B|-----------------------------------------|-----------------------------------------|
G|-----------------------------------------|-----------------------------------------|
D|-7--------------7--------------7----9----|-7--------------7--------------7----9----|
A|-5----5----5----5----5----5----5----7----|-5----5----5----5----5----5----5----7----|
E|-----------------------------------------|-----------------------------------------|


E|-17-------------17-------------17---15---|-13-------------13-------------13---15---|
B|-15---15---15---15---15---15-------------|-11---11---11---11---11---11-------------|
G|-----------------------------------------|-----------------------------------------|
D|-----------------------------------------|-----------------------------------------|
A|-----------------------------------------|-----------------------------------------|
E|-----------------------------------------|-----------------------------------------|


E|-17-------------17-------------17---17---|-20---18---17------------------------|-17-------------17-------------17---15---|
B|-15---15---15---15---15---15-------------|----------------20---18---17---------|-15---15---15---15---15---15-------------|
G|-----------------------------------------|-------------------------------19----|-----------------------------------------|
D|-----------------------------------------|-------------------------------------|-----------------------------------------|
A|-----------------------------------------|-------------------------------------|-----------------------------------------|
E|-----------------------------------------|-------------------------------------|-----------------------------------------|


E|-13-------------13-------------13---15---|-17-------------17-------------17---17---|
B|-11---11---11---11---11---11-------------|-15---15---15---15---15---15-------------|
G|-----------------------------------------|-----------------------------------------|
D|-----------------------------------------|-----------------------------------------|
A|-----------------------------------------|-----------------------------------------|
E|-----------------------------------------|-----------------------------------------|


E|-20---18---17------------------17----|-15---13---12----10------------------------|
B|----------------20---18---20---------|-15---13---13---------13--11--10-----------|
G|-------------------------------------|----------------------------------12--10---|
D|-------------------------------------|-------------------------------------------|
A|-------------------------------------|-------------------------------------------|
E|-------------------------------------|-------------------------------------------|


E|-------------------------------------------|-----------------------------------------|
B|-------------------------------------------|------13---11---10---13---11---10---13---|
G|-12--10--9---------------------------------|-----------------------------------------|
D|-------------10--10----8----10---8----10---|-10--------------------------------------|
A|-------------------------------------------|-----------------------------------------|
E|-------------------------------------------|-----------------------------------------|


E|-------15------|-18-----17-----15----|------------------------------------------|
B|-13------------|---------------------|-18---17---15-----13----------------------|
G|---------------|---------------------|----------------------15--14--12----------|
D|---------------|---------------------|----------------------------------15--14--|
A|---------------|---------------------|------------------------------------------|
E|---------------|---------------------|------------------------------------------|


E|----------------------------------------------------|-18--17--15--------------|-----------------------------------------|
B|----------------------------------------15--13--15--|-------------18--15------|-----------------------------------------|
G|-------12--14--15--14-------12--14--15--------------|-------------------------|-9----9----9----9----9----9----9----9----|
D|-12--------------------12---------------------------|-------------------------|-9----9----9----9----9----9----9----9----|
A|----------------------------------------------------|-------------------------|-7----7----7----7----7----7----7----7----|
E|----------------------------------------------------|-------------------------|-----------------------------------------|


E|-----------------------------------------|-----------------------------------------|
B|-----------------------------------------|-----------------------------------------|
G|-7----7----7----7----7----7----7----7----|-9----9----9----9----9----9----9----9----|
D|-9----9----9----9----9----9----9----9----|-9----9----9----9----9----9----9----9----|
A|-10---10---10---10---10---10---10---10---|-7----7----7----7----7----7----7----7----|
E|-----------------------------------------|-----------------------------------------|


E|-----------------------------------------|-----------------------------------------|
B|-10---10---10---10---10---10---10---10---|-----------------------------------------|
G|-9----9----9----9----9----9----9----9----|-7----7----7----7----7----7----7----7----|
D|-7----7----7----7----7----7----7----7----|-9----9----9----9----9----9----9----9----|
A|-----------------------------------------|-10---10---10---10---10---10---10---10---|
E|-----------------------------------------|-----------------------------------------|


E|-----------------------------------------|------------------------|---------------------------------|
B|-----------------------------------------|------------------------|---------------------------------|
G|-7----7----7----7----7----7----7----7----|------------------------|---------------------------------|
D|-7----7----7----7----7----7----7----7----|-9------9----10---9-----|-10---9----10---9------9----10---|
A|-5----5----5----5----5----5----5----5----|-7------7----7----7-----|-7----7----7----7------7----7----|
E|-----------------------------------------|------------------------|---------------------------------|


E|-----------------------------------------|-----------------------------------------|
B|-----------------------------------------|-----------------------------------------|
G|-9----9----9----9----9----9----9----9----|-7----7----7----7----7----7----7----7----|
D|-9----9----9----9----9----9----9----9----|-9----9----9----9----9----9----9----9----|
A|-7----7----7----7----7----7----7----7----|-10---10---10---10---10---10---10---10---|
E|-----------------------------------------|-----------------------------------------|


E|-----------------------------------------|-----------------------------------------|
B|-----------------------------------------|-10---10---10---10---10---10---10---10---|
G|-9----9----9----9----9----9----9----9----|-9----9----9----9----9----9----9----9----|
D|-9----9----9----9----9----9----9----9----|-7----7----7----7----7----7----7----7----|
A|-7----7----7----7----7----7----7----7----|-----------------------------------------|
E|-----------------------------------------|-----------------------------------------|


E|-----------------------------------------|-----------------------------------------|
B|-----------------------------------------|-----------------------------------------|
G|-7----7----7----7----7----7----7----7----|-7----7----7----7----7----7----7----7----|
D|-9----9----9----9----9----9----9----9----|-7----7----7----7----7----7----7----7----|
A|-10---10---10---10---10---10---10---10---|-5----5----5----5----5----5----5----5----|
E|-----------------------------------------|-----------------------------------------|


E|------------------------|---------------------------------|--------------------------------------------|
B|------------------------|---------------------------------|--------------------------------------------|
G|------------------------|---------------------------------|-----------------------------4----4----4----|
D|-9------9----10---9-----|-10---9----10---9------9----10---|-2---------2----5---4---5-------------------|
A|-7------7----7----7-----|-7----7----7----7------7----7----|------2-------------------------------------|
E|------------------------|---------------------------------|--------------------------------------------|


E|--------------------------------------------|--------------------------------------------|
B|--------------------------------------------|--------------------------------------------|
G|-2------------------------------------------|-----------------------------4----4----4----|
D|------4---5---4----2-------------------2----|-2---------2----5---4---5-------------------|
A|------------------------2----3----5---------|------2-------------------------------------|
E|--------------------------------------------|--------------------------------------------|


E|--------------------------------------------|--------------------------------------------|
B|--------------------------------------------|--------------------------------------------|
G|-2------------------------------------------|-----------------------------4----4----4----|
D|------4---5---4----2-------------------2----|-2---------2----5---4---5-------------------|
A|------------------------2----3----5---------|------2-------------------------------------|
E|--------------------------------------------|--------------------------------------------|


E|--------------------------------------------|--------------------------------------------|
B|--------------------------------------------|--------------------------------------------|
G|-2------------------------------------------|-----------------------------4----4----4----|
D|------4---5---4----2-------------------2----|-2---------2----5---4---5-------------------|
A|------------------------2----3----5---------|------2-------------------------------------|
E|--------------------------------------------|--------------------------------------------|


E|--------------------------------------------|--------------------------------------------|
B|--------------------------------------------|--------------------------------------------|
G|-------------------4----4----2----0---------|-----------------------------4----4----4----|
D|-2----5---4---5------------------------2----|-2---------2----5---4---5-------------------|
A|--------------------------------------------|------2-------------------------------------|
E|--------------------------------------------|--------------------------------------------|


E|--------------------------------------------|--------------------------------------------|
B|--------------------------------------------|--------------------------------------------|
G|-2------------------------------------------|-----------------------------4----4----4----|
D|------4---5---4----2-------------------2----|-2---------2----5---4---5-------------------|
A|------------------------2----3----5---------|------2-------------------------------------|
E|--------------------------------------------|--------------------------------------------|


E|--------------------------------------------|--------------------------------------------|
B|--------------------------------------------|--------------------------------------------|
G|-2------------------------------------------|-----------------------------4----4----4----|
D|------4---5---4----2-------------------2----|-2---------2----5---4---5-------------------|
A|------------------------2----3----5---------|------2-------------------------------------|
E|--------------------------------------------|--------------------------------------------|


E|--------------------------------------------|--------------------------------------------|
B|--------------------------------------------|--------------------------------------------|
G|-2------------------------------------------|-----------------------------4----4----4----|
D|------4---5---4----2-------------------2----|-2---------2----5---4---5-------------------|
A|------------------------2----3----5---------|------2-------------------------------------|
E|--------------------------------------------|--------------------------------------------|


E|--------------------------------------------|--------------------------------------------|
B|--------------------------------------------|--------------------------------------------|
G|-------------------4----4----2----0---------|-----------------------------4----4----4----|
D|-2----5---4---5------------------------2----|-2---------2----5---4---5-------------------|
A|--------------------------------------------|------2-------------------------------------|
E|--------------------------------------------|--------------------------------------------|


E|--------------------------------------------|--------------------------------------------|
B|--------------------------------------------|--------------------------------------------|
G|-2------------------------------------------|-----------------------------4----4----4----|
D|------4---5---4----2-------------------2----|-2---------2----5---4---5-------------------|
A|------------------------2----3----5---------|------2-------------------------------------|
E|--------------------------------------------|--------------------------------------------|


E|--------------------------------------------|--------------------------------------------|
B|--------------------------------------------|--------------------------------------------|
G|-2------------------------------------------|-----------------------------4----4----4----|
D|------4---5---4----2-------------------2----|-2---------2----5---4---5-------------------|
A|------------------------2----3----5---------|------2-------------------------------------|
E|--------------------------------------------|--------------------------------------------|


E|--------------------------------------------|--------------------------------------------|
B|--------------------------------------------|--------------------------------------------|
G|-2------------------------------------------|-----------------------------4----4----4----|
D|------4---5---4----2-------------------2----|-2---------2----5---4---5-------------------|
A|------------------------2----3----5---------|------2-------------------------------------|
E|--------------------------------------------|--------------------------------------------|


E|--------------------------------------------|-------------------------------------|
B|--------------------------------------------|-------------------------------------|
G|-------------------4----4----2----0---------|-------------------------------------|
D|-2----5---4---5------------------------2----|-9-----9----9----9----9----9----9----|
A|--------------------------------------------|-7-----7----7----7----7----7----7----|
E|--------------------------------------------|-------------------------------------|


E|-------------------------------------|-------------------------------------|-------------------------------------|
B|-------------------------------------|-------------------------------------|-------------------------------------|
G|-------------------------------------|-------------------------------------|-------------------------------------|
D|-5-----5----5----5----5----5----5----|-------------------------------------|-2-----2----2----2----2----2----2----|
A|-3-----3----3----3----3----3----3----|-5-----5----5----5----5----5----5----|-0-----0----0----0----0----0----0----|
E|-------------------------------------|-3-----3----3----3----3----3----3----|-------------------------------------|


E|-------------------------------------|-------------------------------------|-------------------------------------|
B|-------------------------------------|-------------------------------------|-------------------------------------|
G|-------------------------------------|-------------------------------------|-------------------------------------|
D|-7-----7----7----7----7----7----7----|-5-----5----5----5----5----5----5----|-2-----2----2----2----2----2----2----|
A|-5-----5----5----5----5----5----5----|-3-----3----3----3----3----3----3----|-0-----0----0----0----0----0----0----|
E|-------------------------------------|-------------------------------------|-------------------------------------|


E|---------|-------------------------------------|-------------------------------------|
B|---------|-------------------------------------|-------------------------------------|
G|---------|-------------------------------------|-------------------------------------|
D|-5-------|-9-----9----9----9----9----9----9----|-5-----5----5----5----5----5----5----|
A|-5-------|-7-----7----7----7----7----7----7----|-3-----3----3----3----3----3----3----|
E|-3-------|-------------------------------------|-------------------------------------|


E|-------------------------------------|-------------------------------------|-------------------------------------|
B|-------------------------------------|-------------------------------------|-------------------------------------|
G|-------------------------------------|-------------------------------------|-------------------------------------|
D|-------------------------------------|-2-----2----2----2----2----2----2----|-7-----7----7----7----7----7----7----|
A|-5-----5----5----5----5----5----5----|-0-----0----0----0----0----0----0----|-5-----5----5----5----5----5----5----|
E|-3-----3----3----3----3----3----3----|-------------------------------------|-------------------------------------|


E|-------------------------------------|-------------------------------------|---------|
B|-------------------------------------|-------------------------------------|---------|
G|-------------------------------------|-------------------------------------|---------|
D|-5-----5----5----5----5----5----5----|-2-----2----2----2----2----2----2----|-5-------|
A|-3-----3----3----3----3----3----3----|-0-----0----0----0----0----0----0----|-5-------|
E|-------------------------------------|-------------------------------------|-3-------|


E|---------------|---------|
B|---------------|---------|
G|-9-----%-------|-%-------|
D|-9-----%-------|-%-------|
A|-7-------------|---------|
E|---------------|---------|

    

Nézd meg a videót és ismerd meg a leggyorsabb utat, hogyan tanulhatod meg kedvenc számaid gitáron!