Hogyan játszd el gitáron a Unknown Artist – Coleccin de 704 ejercicios para guitarra dalt?

Unknown Artist Coleccin de 704 ejercicios para guitarra – GITÁR PRO TAB, KOTTA, AKKORDOK

Kotta típusa: Guitarra

(Általában egy zeneszám minden kottája: gitár, szólógitár, basszusgitár, ének, zongora, dob stb. megtalálható az oldalon, de mindegyik egy külön bejegyzésben. Ha egy másik hangszer gitártabos kottáját keresed, akkor az oldal alján vagy a keresőben megtalálod. Sokszor a zenekar tagjának a neve lesz a kotta kategóriája.)

        


E|-------------------------------|-------------------------------|-------------------------------|
B|-------------------------------|-------------------------------|-------------------------------|
G|-------------------------------|-------------------------------|-------------------------------|
D|-------------------------------|-1----2----3----4----3----2----|-------------------------------|
A|-------------------------------|-------------------------------|-1----2----3----4----3----2----|
E|-1----2----3----4----3----2----|-------------------------------|-------------------------------|


E|-------------------------------|-------------------------------|-------------------------------|
B|-------------------------------|-------------------------------|-1----2----3----4----3----2----|
G|-1----2----3----4----3----2----|-------------------------------|-------------------------------|
D|-------------------------------|-1----2----3----4----3----2----|-------------------------------|
A|-------------------------------|-------------------------------|-------------------------------|
E|-------------------------------|-------------------------------|-------------------------------|


E|-------------------------------|-1----2----3----4----3----2----|-1----2----3----4----3----2----|
B|-------------------------------|-------------------------------|-------------------------------|
G|-1----2----3----4----3----2----|-------------------------------|-------------------------------|
D|-------------------------------|-------------------------------|-------------------------------|
A|-------------------------------|-------------------------------|-------------------------------|
E|-------------------------------|-------------------------------|-------------------------------|


E|-------------------------------|-------------------------------|-------------------------------|
B|-------------------------------|-1----2----3----4----3----2----|-------------------------------|
G|-1----2----3----4----3----2----|-------------------------------|-------------------------------|
D|-------------------------------|-------------------------------|-1----2----3----4----3----2----|
A|-------------------------------|-------------------------------|-------------------------------|
E|-------------------------------|-------------------------------|-------------------------------|


E|-------------------------------|-------------------------------|-------------------------------|
B|-------------------------------|-------------------------------|-------------------------------|
G|-1----2----3----4----3----2----|-------------------------------|-------------------------------|
D|-------------------------------|-------------------------------|-1----2----3----4----3----2----|
A|-------------------------------|-1----2----3----4----3----2----|-------------------------------|
E|-------------------------------|-------------------------------|-------------------------------|


E|-------------------------------|-------------------------------|-------------------------------|
B|-------------------------------|-------------------------------|-------------------------------|
G|-------------------------------|-------------------------------|-------------------------------|
D|-------------------------------|-4----3----2----1----2----3----|-------------------------------|
A|-------------------------------|-------------------------------|-4----3----2----1----2----3----|
E|-4----3----2----1----2----3----|-------------------------------|-------------------------------|


E|-------------------------------|-------------------------------|-------------------------------|
B|-------------------------------|-------------------------------|-4----3----2----1----2----3----|
G|-4----3----2----1----2----3----|-------------------------------|-------------------------------|
D|-------------------------------|-4----3----2----1----2----3----|-------------------------------|
A|-------------------------------|-------------------------------|-------------------------------|
E|-------------------------------|-------------------------------|-------------------------------|


E|-------------------------------|-4----3----2----1----2----3----|-4----3----2----1----2----3----|
B|-------------------------------|-------------------------------|-------------------------------|
G|-4----3----2----1----2----3----|-------------------------------|-------------------------------|
D|-------------------------------|-------------------------------|-------------------------------|
A|-------------------------------|-------------------------------|-------------------------------|
E|-------------------------------|-------------------------------|-------------------------------|


E|-------------------------------|-------------------------------|-------------------------------|
B|-------------------------------|-4----3----2----1----2----3----|-------------------------------|
G|-4----3----2----1----2----3----|-------------------------------|-------------------------------|
D|-------------------------------|-------------------------------|-4----3----2----1----2----3----|
A|-------------------------------|-------------------------------|-------------------------------|
E|-------------------------------|-------------------------------|-------------------------------|


E|-------------------------------|-------------------------------|-------------------------------|
B|-------------------------------|-------------------------------|-------------------------------|
G|-4----3----2----1----2----3----|-------------------------------|-------------------------------|
D|-------------------------------|-------------------------------|-4----3----2----1----2----3----|
A|-------------------------------|-4----3----2----1----2----3----|-------------------------------|
E|-------------------------------|-------------------------------|-------------------------------|


E|-------------------------------|-------------------------------|-------------------------------|
B|-------------------------------|-------------------------------|-------------------------------|
G|-------------------------------|-------------------------------|-------------------------------|
D|-------------------------------|-4----1----2----3----2----1----|-------------------------------|
A|-------------------------------|-------------------------------|-4----1----2----3----2----1----|
E|-4----1----2----3----2----1----|-------------------------------|-------------------------------|


E|-------------------------------|-------------------------------|-------------------------------|
B|-------------------------------|-------------------------------|-4----1----2----3----2----1----|
G|-4----1----2----3----2----1----|-------------------------------|-------------------------------|
D|-------------------------------|-4----1----2----3----2----1----|-------------------------------|
A|-------------------------------|-------------------------------|-------------------------------|
E|-------------------------------|-------------------------------|-------------------------------|


E|-------------------------------|-4----1----2----3----2----1----|-4----1----2----3----2----1----|
B|-------------------------------|-------------------------------|-------------------------------|
G|-4----1----2----3----2----1----|-------------------------------|-------------------------------|
D|-------------------------------|-------------------------------|-------------------------------|
A|-------------------------------|-------------------------------|-------------------------------|
E|-------------------------------|-------------------------------|-------------------------------|


E|-------------------------------|-------------------------------|-------------------------------|
B|-------------------------------|-4----1----2----3----2----1----|-------------------------------|
G|-4----1----2----3----2----1----|-------------------------------|-------------------------------|
D|-------------------------------|-------------------------------|-4----1----2----3----2----1----|
A|-------------------------------|-------------------------------|-------------------------------|
E|-------------------------------|-------------------------------|-------------------------------|


E|-------------------------------|-------------------------------|-------------------------------|
B|-------------------------------|-------------------------------|-------------------------------|
G|-4----1----2----3----2----1----|-------------------------------|-------------------------------|
D|-------------------------------|-------------------------------|-4----1----2----3----2----1----|
A|-------------------------------|-4----1----2----3----2----1----|-------------------------------|
E|-------------------------------|-------------------------------|-------------------------------|


E|-------------------------------|-------------------------------|-------------------------------|
B|-------------------------------|-------------------------------|-------------------------------|
G|-------------------------------|-------------------------------|-------------------------------|
D|-------------------------------|-1----4----3----2----3----4----|-------------------------------|
A|-------------------------------|-------------------------------|-1----4----3----2----3----4----|
E|-1----4----3----2----3----4----|-------------------------------|-------------------------------|


E|-------------------------------|-------------------------------|-------------------------------|
B|-------------------------------|-------------------------------|-1----4----3----2----3----4----|
G|-1----4----3----2----3----4----|-------------------------------|-------------------------------|
D|-------------------------------|-1----4----3----2----3----4----|-------------------------------|
A|-------------------------------|-------------------------------|-------------------------------|
E|-------------------------------|-------------------------------|-------------------------------|


E|-------------------------------|-1----4----3----2----3----4----|-1----4----3----2----3----4----|
B|-------------------------------|-------------------------------|-------------------------------|
G|-1----4----3----2----3----4----|-------------------------------|-------------------------------|
D|-------------------------------|-------------------------------|-------------------------------|
A|-------------------------------|-------------------------------|-------------------------------|
E|-------------------------------|-------------------------------|-------------------------------|


E|-------------------------------|-------------------------------|-------------------------------|
B|-------------------------------|-1----4----3----2----3----4----|-------------------------------|
G|-1----4----3----2----3----4----|-------------------------------|-------------------------------|
D|-------------------------------|-------------------------------|-1----4----3----2----3----4----|
A|-------------------------------|-------------------------------|-------------------------------|
E|-------------------------------|-------------------------------|-------------------------------|


E|-------------------------------|-------------------------------|-------------------------------|
B|-------------------------------|-------------------------------|-------------------------------|
G|-1----4----3----2----3----4----|-------------------------------|-------------------------------|
D|-------------------------------|-------------------------------|-1----4----3----2----3----4----|
A|-------------------------------|-1----4----3----2----3----4----|-------------------------------|
E|-------------------------------|-------------------------------|-------------------------------|


E|-------------------------------|-------------------------------|-------------------------------|
B|-------------------------------|-------------------------------|-------------------------------|
G|-------------------------------|-------------------------------|-------------------------------|
D|-------------------------------|-1----2----3----2----3----4----|-------------------------------|
A|-------------------------------|-------------------------------|-1----2----3----2----3----4----|
E|-1----2----3----2----3----4----|-------------------------------|-------------------------------|


E|-------------------------------|-------------------------------|-------------------------------|
B|-------------------------------|-------------------------------|-1----2----3----2----3----4----|
G|-1----2----3----2----3----4----|-------------------------------|-------------------------------|
D|-------------------------------|-1----2----3----2----3----4----|-------------------------------|
A|-------------------------------|-------------------------------|-------------------------------|
E|-------------------------------|-------------------------------|-------------------------------|


E|-------------------------------|-1----2----3----2----3----4----|-1----2----3----2----3----4----|
B|-------------------------------|-------------------------------|-------------------------------|
G|-1----2----3----2----3----4----|-------------------------------|-------------------------------|
D|-------------------------------|-------------------------------|-------------------------------|
A|-------------------------------|-------------------------------|-------------------------------|
E|-------------------------------|-------------------------------|-------------------------------|


E|-------------------------------|-------------------------------|-------------------------------|
B|-------------------------------|-1----2----3----2----3----4----|-------------------------------|
G|-1----2----3----2----3----4----|-------------------------------|-------------------------------|
D|-------------------------------|-------------------------------|-1----2----3----2----3----4----|
A|-------------------------------|-------------------------------|-------------------------------|
E|-------------------------------|-------------------------------|-------------------------------|


E|-------------------------------|-------------------------------|-------------------------------|
B|-------------------------------|-------------------------------|-------------------------------|
G|-1----2----3----2----3----4----|-------------------------------|-------------------------------|
D|-------------------------------|-------------------------------|-1----2----3----2----3----4----|
A|-------------------------------|-1----2----3----2----3----4----|-------------------------------|
E|-------------------------------|-------------------------------|-------------------------------|


E|-------------------------------|-------------------------------|-------------------------------|
B|-------------------------------|-------------------------------|-------------------------------|
G|-------------------------------|-------------------------------|-------------------------------|
D|-------------------------------|-4----3----2----3----2----1----|-------------------------------|
A|-------------------------------|-------------------------------|-4----3----2----3----2----1----|
E|-4----3----2----3----2----1----|-------------------------------|-------------------------------|


E|-------------------------------|-------------------------------|-------------------------------|
B|-------------------------------|-------------------------------|-4----3----2----3----2----1----|
G|-4----3----2----3----2----1----|-------------------------------|-------------------------------|
D|-------------------------------|-4----3----2----3----2----1----|-------------------------------|
A|-------------------------------|-------------------------------|-------------------------------|
E|-------------------------------|-------------------------------|-------------------------------|


E|-------------------------------|-4----3----2----3----2----1----|-4----3----2----3----2----1----|
B|-------------------------------|-------------------------------|-------------------------------|
G|-4----3----2----3----2----1----|-------------------------------|-------------------------------|
D|-------------------------------|-------------------------------|-------------------------------|
A|-------------------------------|-------------------------------|-------------------------------|
E|-------------------------------|-------------------------------|-------------------------------|


E|-------------------------------|-------------------------------|-------------------------------|
B|-------------------------------|-4----3----2----3----2----1----|-------------------------------|
G|-4----3----2----3----2----1----|-------------------------------|-------------------------------|
D|-------------------------------|-------------------------------|-4----3----2----3----2----1----|
A|-------------------------------|-------------------------------|-------------------------------|
E|-------------------------------|-------------------------------|-------------------------------|


E|-------------------------------|-------------------------------|-------------------------------|
B|-------------------------------|-------------------------------|-------------------------------|
G|-4----3----2----3----2----1----|-------------------------------|-------------------------------|
D|-------------------------------|-------------------------------|-4----3----2----3----2----1----|
A|-------------------------------|-4----3----2----3----2----1----|-------------------------------|
E|-------------------------------|-------------------------------|-------------------------------|


E|-------------------------------|-------------------------------|-------------------------------|
B|-------------------------------|-------------------------------|-------------------------------|
G|-------------------------------|-------------------------------|-------------------------------|
D|-------------------------------|-2----3----4----3----2----1----|-------------------------------|
A|-------------------------------|-------------------------------|-2----3----4----3----2----1----|
E|-2----3----4----3----2----1----|-------------------------------|-------------------------------|


E|-------------------------------|-------------------------------|-------------------------------|
B|-------------------------------|-------------------------------|-2----3----4----3----2----1----|
G|-2----3----4----3----2----1----|-------------------------------|-------------------------------|
D|-------------------------------|-2----3----4----3----2----1----|-------------------------------|
A|-------------------------------|-------------------------------|-------------------------------|
E|-------------------------------|-------------------------------|-------------------------------|


E|-------------------------------|-2----3----4----3----2----1----|-2----3----4----3----2----1----|
B|-------------------------------|-------------------------------|-------------------------------|
G|-2----3----4----3----2----1----|-------------------------------|-------------------------------|
D|-------------------------------|-------------------------------|-------------------------------|
A|-------------------------------|-------------------------------|-------------------------------|
E|-------------------------------|-------------------------------|-------------------------------|


E|-------------------------------|-------------------------------|-------------------------------|
B|-------------------------------|-2----3----4----3----2----1----|-------------------------------|
G|-2----3----4----3----2----1----|-------------------------------|-------------------------------|
D|-------------------------------|-------------------------------|-2----3----4----3----2----1----|
A|-------------------------------|-------------------------------|-------------------------------|
E|-------------------------------|-------------------------------|-------------------------------|


E|-------------------------------|-------------------------------|-------------------------------|
B|-------------------------------|-------------------------------|-------------------------------|
G|-2----3----4----3----2----1----|-------------------------------|-------------------------------|
D|-------------------------------|-------------------------------|-2----3----4----3----2----1----|
A|-------------------------------|-2----3----4----3----2----1----|-------------------------------|
E|-------------------------------|-------------------------------|-------------------------------|


E|-------------------------------|-------------------------------|-------------------------------|
B|-------------------------------|-------------------------------|-------------------------------|
G|-------------------------------|-------------------------------|-------------------------------|
D|-------------------------------|-3----2----1----2----3----4----|-------------------------------|
A|-------------------------------|-------------------------------|-3----2----1----2----3----4----|
E|-3----2----1----2----3----4----|-------------------------------|-------------------------------|


E|-------------------------------|-------------------------------|-------------------------------|
B|-------------------------------|-------------------------------|-3----2----1----2----3----4----|
G|-3----2----1----2----3----4----|-------------------------------|-------------------------------|
D|-------------------------------|-3----2----1----2----3----4----|-------------------------------|
A|-------------------------------|-------------------------------|-------------------------------|
E|-------------------------------|-------------------------------|-------------------------------|


E|-------------------------------|-3----2----1----2----3----4----|-3----2----1----2----3----4----|
B|-------------------------------|-------------------------------|-------------------------------|
G|-3----2----1----2----3----4----|-------------------------------|-------------------------------|
D|-------------------------------|-------------------------------|-------------------------------|
A|-------------------------------|-------------------------------|-------------------------------|
E|-------------------------------|-------------------------------|-------------------------------|


E|-------------------------------|-------------------------------|-------------------------------|
B|-------------------------------|-3----2----1----2----3----4----|-------------------------------|
G|-3----2----1----2----3----4----|-------------------------------|-------------------------------|
D|-------------------------------|-------------------------------|-3----2----1----2----3----4----|
A|-------------------------------|-------------------------------|-------------------------------|
E|-------------------------------|-------------------------------|-------------------------------|


E|-------------------------------|-------------------------------|-------------------------------|
B|-------------------------------|-------------------------------|-------------------------------|
G|-3----2----1----2----3----4----|-------------------------------|-------------------------------|
D|-------------------------------|-------------------------------|-3----2----1----2----3----4----|
A|-------------------------------|-3----2----1----2----3----4----|-------------------------------|
E|-------------------------------|-------------------------------|-------------------------------|


E|-------------------------------|-------------------------------|-------------------------------|
B|-------------------------------|-------------------------------|-------------------------------|
G|-------------------------------|-------------------------------|-------------------------------|
D|-------------------------------|-3----1----3----2----4----2----|-------------------------------|
A|-------------------------------|-------------------------------|-3----1----3----2----4----2----|
E|-3----1----3----2----4----2----|-------------------------------|-------------------------------|


E|-------------------------------|-------------------------------|-------------------------------|
B|-------------------------------|-------------------------------|-3----1----3----2----4----2----|
G|-3----1----3----2----4----2----|-------------------------------|-------------------------------|
D|-------------------------------|-3----1----3----2----4----2----|-------------------------------|
A|-------------------------------|-------------------------------|-------------------------------|
E|-------------------------------|-------------------------------|-------------------------------|


E|-------------------------------|-3----1----3----2----4----2----|-3----1----3----2----4----2----|
B|-------------------------------|-------------------------------|-------------------------------|
G|-3----1----3----2----4----2----|-------------------------------|-------------------------------|
D|-------------------------------|-------------------------------|-------------------------------|
A|-------------------------------|-------------------------------|-------------------------------|
E|-------------------------------|-------------------------------|-------------------------------|


E|-------------------------------|-------------------------------|-------------------------------|
B|-------------------------------|-3----1----3----2----4----2----|-------------------------------|
G|-3----1----3----2----4----2----|-------------------------------|-------------------------------|
D|-------------------------------|-------------------------------|-3----1----3----2----4----2----|
A|-------------------------------|-------------------------------|-------------------------------|
E|-------------------------------|-------------------------------|-------------------------------|


E|-------------------------------|-------------------------------|-------------------------------|
B|-------------------------------|-------------------------------|-------------------------------|
G|-3----1----3----2----4----2----|-------------------------------|-------------------------------|
D|-------------------------------|-------------------------------|-3----1----3----2----4----2----|
A|-------------------------------|-3----1----3----2----4----2----|-------------------------------|
E|-------------------------------|-------------------------------|-------------------------------|


E|-------------------------------|-------------------------------|-------------------------------|
B|-------------------------------|-------------------------------|-------------------------------|
G|-------------------------------|-------------------------------|-------------------------------|
D|-------------------------------|-1----3----1----4----2----4----|-------------------------------|
A|-------------------------------|-------------------------------|-1----3----1----4----2----4----|
E|-1----3----1----4----2----4----|-------------------------------|-------------------------------|


E|-------------------------------|-------------------------------|-------------------------------|
B|-------------------------------|-------------------------------|-1----3----1----4----2----4----|
G|-1----3----1----4----2----4----|-------------------------------|-------------------------------|
D|-------------------------------|-1----3----1----4----2----4----|-------------------------------|
A|-------------------------------|-------------------------------|-------------------------------|
E|-------------------------------|-------------------------------|-------------------------------|


E|-------------------------------|-1----3----1----4----2----4----|-1----3----1----4----2----4----|
B|-------------------------------|-------------------------------|-------------------------------|
G|-1----3----1----4----2----4----|-------------------------------|-------------------------------|
D|-------------------------------|-------------------------------|-------------------------------|
A|-------------------------------|-------------------------------|-------------------------------|
E|-------------------------------|-------------------------------|-------------------------------|


E|-------------------------------|-------------------------------|-------------------------------|
B|-------------------------------|-1----3----1----4----2----4----|-------------------------------|
G|-1----3----1----4----2----4----|-------------------------------|-------------------------------|
D|-------------------------------|-------------------------------|-1----3----1----4----2----4----|
A|-------------------------------|-------------------------------|-------------------------------|
E|-------------------------------|-------------------------------|-------------------------------|


E|-------------------------------|-------------------------------|-------------------------------|
B|-------------------------------|-------------------------------|-------------------------------|
G|-1----3----1----4----2----4----|-------------------------------|-------------------------------|
D|-------------------------------|-------------------------------|-1----3----1----4----2----4----|
A|-------------------------------|-1----3----1----4----2----4----|-------------------------------|
E|-------------------------------|-------------------------------|-------------------------------|


E|---------|
B|---------|
G|-%-------|
D|-%-------|
A|---------|
E|---------|

    

Nézd meg a videót és ismerd meg a leggyorsabb utat, hogyan tanulhatod meg kedvenc számaid gitáron!