Hogyan játszd el gitáron a Unknown Artist – Dreams Of Glory dalt?

Unknown Artist Dreams Of Glory – GITÁR PRO TAB, KOTTA, AKKORDOK

Kotta típusa: Drums

(Általában egy zeneszám minden kottája: gitár, szólógitár, basszusgitár, ének, zongora, dob stb. megtalálható az oldalon, de mindegyik egy külön bejegyzésben. Ha egy másik hangszer gitártabos kottáját keresed, akkor az oldal alján vagy a keresőben megtalálod. Sokszor a zenekar tagjának a neve lesz a kotta kategóriája.)

        


C|---------|---------|---------|---------|---------|---------|---------|---------|------------------------------------------------|
C|---------|---------|---------|---------|---------|---------|---------|---------|------------------------------------------------|
C|-%-------|-%-------|-%-------|-%-------|-%-------|-%-------|-%-------|-%-------|------------------------------------------------|
C|-%-------|-%-------|-%-------|-%-------|-%-------|-%-------|-%-------|-%-------|-46--------------------46-----------------------|
C|---------|---------|---------|---------|---------|---------|---------|---------|-38----36----36---36---36----38----36---36--36--|
C|---------|---------|---------|---------|---------|---------|---------|---------|------------------------------------------------|


C|------------------------------------------------|------------------------------------------------|
C|------------------------------------------------|------------------------------------------------|
C|------------------------------------------------|------------------------------------------------|
C|-46--------------------46-----------------------|-46--------------------46-----------------------|
C|-38----36----36---36---36----38----36---36--36--|-38----36----36---36---36----38----36---36--36--|
C|------------------------------------------------|------------------------------------------------|


C|------------------------------------------------|------------------------------------------------|
C|------------------------------------------------|------------------------------------------------|
C|------------------------------------------------|------------------------------------------------|
C|-46--------------------46-----------------------|-46--------------------46-----------------------|
C|-38----36----36---36---36----38----36---36--36--|-38----36----36---36---36----38----36---36--36--|
C|------------------------------------------------|------------------------------------------------|


C|------------------------------------------------|------------------------------------------------|
C|------------------------------------------------|------------------------------------------------|
C|------------------------------------------------|------------------------------------------------|
C|-46--------------------46-----------------------|-46--------------------46-----------------------|
C|-38----36----36---36---36----38----36---36--36--|-38----36----36---36---36----38----36---36--36--|
C|------------------------------------------------|------------------------------------------------|


C|------------------------------------------------|------------------------------------------------|
C|------------------------------------------------|------------------------------------------------|
C|------------------------------------------------|------------------------------------------------|
C|-46--------------------46-----------------------|-46--------------------46-----------------------|
C|-38----36----36---36---36----38----36---36--36--|-38----36----36---36---36----38----36---36--36--|
C|------------------------------------------------|------------------------------------------------|


C|------------------------------------------------|------------------------------------------------|
C|------------------------------------------------|------------------------------------------------|
C|------------------------------------------------|------------------------------------------------|
C|-46--------------------46-----------------------|-46--------------------46-----------------------|
C|-38----36----36---36---36----38----36---36--36--|-38----36----36---36---36----38----36---36--36--|
C|------------------------------------------------|------------------------------------------------|


C|------------------------------------------------|------------------------------------------------|
C|------------------------------------------------|------------------------------------------------|
C|------------------------------------------------|------------------------------------------------|
C|-46--------------------46-----------------------|-46--------------------46-----------------------|
C|-38----36----36---36---36----38----36---36--36--|-38----36----36---36---36----38----36---36--36--|
C|------------------------------------------------|------------------------------------------------|


C|------------------------------------------------|------------------------------------------------|
C|------------------------------------------------|------------------------------------------------|
C|------------------------------------------------|------------------------------------------------|
C|-46--------------------46-----------------------|-46--------------------46-----------------------|
C|-38----36----36---36---36----38----36---36--36--|-38----36----36---36---36----38----36---36--36--|
C|------------------------------------------------|------------------------------------------------|


C|------------------------------------------------|------------------------------------------------|
C|------------------------------------------------|------------------------------------------------|
C|------------------------------------------------|-49---------------------------------------------|
C|-46--------------------46-----------------------|-57----42----42--------42----42----42-----------|
C|-38----36----36---36---36----38----36---36--36--|-40----------36---36---40----36---------36--36--|
C|------------------------------------------------|-------------36---36---------36---------36--36--|


C|------------------------------------------------|------------------------------------------------|
C|------------------------------------------------|------------------------------------------------|
C|------------------------------------------------|------------------------------------------------|
C|-42----42----42--------42----42----42-----------|-42----42----42--------42----42----42-----------|
C|-40----------36---36---40----36---------36--36--|-40----------36---36---40----36---------36--36--|
C|-------------36---36---------36---------36--36--|-------------36---36---------36---------36--36--|


C|------------------------------------------------|------------------------------------------------|
C|------------------------------------------------|------------------------------------------------|
C|------------------------------------------------|-49---------------------------------------------|
C|-42----42----42--------42----42----42-----------|-57----42----42--------42----42----42-----------|
C|-40----------36---36---40----36---------36--36--|-40----------36---36---40----36---------36--36--|
C|-------------36---36---------36---------36--36--|-------------36---36---------36---------36--36--|


C|------------------------------------------------|------------------------------------------------|
C|------------------------------------------------|------------------------------------------------|
C|------------------------------------------------|------------------------------------------------|
C|-42----42----42--------42----42----42-----------|-42----42----42--------42----42----42-----------|
C|-40----------36---36---40----36---------36--36--|-40----------36---36---40----36---------36--36--|
C|-------------36---36---------36---------36--36--|-------------36---36---------36---------36--36--|


C|------------------------------------------------|------------------------------------------------|
C|------------------------------------------------|------------------------------------------------|
C|------------------------------------------------|-49---------------------------------------------|
C|-42----42----42--------42----42----42-----------|-57----42----42--------42----42----42-----------|
C|-40----------36---36---40----36---------36--36--|-40----------36---36---40----36---------36--36--|
C|-------------36---36---------36---------36--36--|-------------36---36---------36---------36--36--|


C|------------------------------------------------|------------------------------------------------|
C|------------------------------------------------|------------------------------------------------|
C|------------------------------------------------|------------------------------------------------|
C|-42----42----42--------42----42----42-----------|-42----42----42--------42----42----42-----------|
C|-40----------36---36---40----36---------36--36--|-40----------36---36---40----36---------36--36--|
C|-------------36---36---------36---------36--36--|-------------36---36---------36---------36--36--|


C|------------------------------------------------|------------------------------------------------|
C|------------------------------------------------|------------------------------------------------|
C|------------------------------------------------|-49---------------------------------------------|
C|-42----42----42--------42----42----42-----------|-57----42----42--------42----42----42-----------|
C|-40----------36---36---40----36---------36--36--|-40----------36---36---40----36---------36--36--|
C|-------------36---36---------36---------36--36--|-------------36---36---------36---------36--36--|


C|------------------------------------------------|------------------------------------------------|
C|------------------------------------------------|------------------------------------------------|
C|------------------------------------------------|------------------------------------------------|
C|-42----42----42--------42----42----42-----------|-42----42----42--------42----42----42-----------|
C|-40----------36---36---40----36---------36--36--|-40----------36---36---40----36---------36--36--|
C|-------------36---36---------36---------36--36--|-------------36---36---------36---------36--36--|


C|------------------------------------------------|------------------------------------------------|
C|------------------------------------------------|------------------------------------------------|
C|------------------------------------------------|-49---------------------------------------------|
C|-42----42----42--------42----42----42-----------|-57----42----42--------42----42----42-----------|
C|-40----------36---36---40----36---------36--36--|-40----------36---36---40----36---------36--36--|
C|-------------36---36---------36---------36--36--|-------------36---36---------36---------36--36--|


C|------------------------------------------------|------------------------------------------------|
C|------------------------------------------------|------------------------------------------------|
C|------------------------------------------------|------------------------------------------------|
C|-42----42----42--------42----42----42-----------|-42----42----42--------42----42----42-----------|
C|-40----------36---36---40----36---------36--36--|-40----------36---36---40----36---------36--36--|
C|-------------36---36---------36---------36--36--|-------------36---36---------36---------36--36--|


C|------------------------------------------------|------------------------------------------------|
C|------------------------------------------------|------------------------------------------------|
C|------------------------------------------------|-49---------------------------------------------|
C|-42----42----42--------42----42----42-----------|-57----42----42--------42----42----42-----------|
C|-40----------36---36---40----36---------36--36--|-40----------36---36---40----36---------36--36--|
C|-------------36---36---------36---------36--36--|-------------36---36---------36---------36--36--|


C|------------------------------------------------|------------------------------------------------|
C|------------------------------------------------|------------------------------------------------|
C|------------------------------------------------|------------------------------------------------|
C|-42----42----42--------42----42----42-----------|-42----42----42--------42----42----42-----------|
C|-40----------36---36---40----36---------36--36--|-40----------36---36---40----36---------36--36--|
C|-------------36---36---------36---------36--36--|-------------36---36---------36---------36--36--|


C|------------------------------------------------|------------------------------------------------|
C|------------------------------------------------|------------------------------------------------|
C|------------------------------------------------|-49---------------------------------------------|
C|-42----42----42--------42----42----42-----------|-57----42----42--------42----42----42-----------|
C|-40----------36---36---40----36---------36--36--|-40----------36---36---40----36---------36--36--|
C|-------------36---36---------36---------36--36--|-------------36---36---------36---------36--36--|


C|------------------------------------------------|------------------------------------------------|
C|------------------------------------------------|------------------------------------------------|
C|------------------------------------------------|------------------------------------------------|
C|-42----42----42--------42----42----42-----------|-42----42----42--------42----42----42-----------|
C|-40----------36---36---40----36---------36--36--|-40----------36---36---40----36---------36--36--|
C|-------------36---36---------36---------36--36--|-------------36---36---------36---------36--36--|


C|------------------------------------------------|------------------------------------------------|
C|------------------------------------------------|------------------------------------------------|
C|------------------------------------------------|-49---------------------------------------------|
C|-42----42----42--------42----42----42-----------|-57----42----42--------42----42----42-----------|
C|-40----------36---36---40----36---------36--36--|-40----------36---36---40----36---------36--36--|
C|-------------36---36---------36---------36--36--|-------------36---36---------36---------36--36--|


C|------------------------------------------------|------------------------------------------------|
C|------------------------------------------------|------------------------------------------------|
C|------------------------------------------------|------------------------------------------------|
C|-42----42----42--------42----42----42-----------|-42----42----42--------42----42----42-----------|
C|-40----------36---36---40----36---------36--36--|-40----------36---36---40----36---------36--36--|
C|-------------36---36---------36---------36--36--|-------------36---36---------36---------36--36--|


C|------------------------------------------------|----------------------------------------------------|
C|------------------------------------------------|----------------------------------------------------|
C|------------------------------------------------|----------------------------------------------------|
C|-42----42----42--------42----42----42-----------|-46--------------------40---------------------------|
C|-40----------36---36---40----36---------36--36--|-40----36---36---36----46----36---36---36---36--36--|
C|-------------36---36---------36---------36--36--|----------------------------------------------------|


C|----------------------------------------------------|----------------------------------------------------|
C|----------------------------------------------------|----------------------------------------------------|
C|----------------------------------------------------|----------------------------------------------------|
C|-46--------------------40---------------------------|-46--------------------40---------------------------|
C|-40----36---36---36----46----36---36---36---36--36--|-40----36---36---36----46----36---36---36---36--36--|
C|----------------------------------------------------|----------------------------------------------------|


C|----------------------------------------------------|----------------------------------------------------|
C|----------------------------------------------------|----------------------------------------------------|
C|----------------------------------------------------|----------------------------------------------------|
C|-46--------------------40---------------------------|-46--------------------40---------------------------|
C|-40----36---36---36----46----36---36---36---36--36--|-40----36---36---36----46----36---36---36---36--36--|
C|----------------------------------------------------|----------------------------------------------------|


C|----------------------------------------------------|----------------------------------------------------|
C|----------------------------------------------------|----------------------------------------------------|
C|----------------------------------------------------|----------------------------------------------------|
C|-46--------------------40---------------------------|-46--------------------40---------------------------|
C|-40----36---36---36----46----36---36---36---36--36--|-40----36---36---36----46----36---36---36---36--36--|
C|----------------------------------------------------|----------------------------------------------------|


C|----------------------------------------------------|----------------------------------------------------|
C|----------------------------------------------------|----------------------------------------------------|
C|----------------------------------------------------|----------------------------------------------------|
C|-46--------------------40---------------------------|-46--------------------40---------------------------|
C|-40----36---36---36----46----36---36---36---36--36--|-40----36---36---36----46----36---36---36---36--36--|
C|----------------------------------------------------|----------------------------------------------------|


C|----------------------------------------------------|----------------------------------------------------|
C|----------------------------------------------------|----------------------------------------------------|
C|----------------------------------------------------|----------------------------------------------------|
C|-46--------------------40---------------------------|-46--------------------40---------------------------|
C|-40----36---36---36----46----36---36---36---36--36--|-40----36---36---36----46----36---36---36---36--36--|
C|----------------------------------------------------|----------------------------------------------------|


C|----------------------------------------------------|---------|-----------------------------------------|
C|----------------------------------------------------|---------|-----------------------------------------|
C|----------------------------------------------------|-40------|-46--------38---38---46--------38--------|
C|-46--------------------40---------------------------|-57------|-36---36---36---36---36---36---36---36---|
C|-40----36---36---36----46----36---36---36---36--36--|-49------|-----------------------------------------|
C|----------------------------------------------------|---------|-----------------------------------------|


C|-----------------------------------------|-----------------------------------------|
C|-----------------------------------------|-----------------------------------------|
C|-46--------38---38---46--------38--------|-46--------38---38---46--------38--------|
C|-36---36---36---36---36---36---36---36---|-36---36---36---36---36---36---36---36---|
C|-----------------------------------------|-----------------------------------------|
C|-----------------------------------------|-----------------------------------------|


C|-----------------------------------------|-----------------------------------------|
C|-----------------------------------------|-----------------------------------------|
C|-46--------38---38---46--------38--------|-46--------38---38---46--------38--------|
C|-36---36---36---36---36---36---36---36---|-36---36---36---36---36---36---36---36---|
C|-----------------------------------------|-----------------------------------------|
C|-----------------------------------------|-----------------------------------------|


C|-----------------------------------------|-----------------------------------------|
C|-----------------------------------------|-----------------------------------------|
C|-46--------38---38---46--------38--------|-46--------38---38---46--------38--------|
C|-36---36---36---36---36---36---36---36---|-36---36---36---36---36---36---36---36---|
C|-----------------------------------------|-----------------------------------------|
C|-----------------------------------------|-----------------------------------------|


C|-----------------------------------------|-----------------------------------------|
C|-----------------------------------------|-----------------------------------------|
C|-46--------38---38---46--------38--------|-46--------38---38---46--------38--------|
C|-36---36---36---36---36---36---36---36---|-36---36---36---36---36---36---36---36---|
C|-----------------------------------------|-----------------------------------------|
C|-----------------------------------------|-----------------------------------------|


C|-----------------------------------------|-----------------------------------------|
C|-----------------------------------------|-----------------------------------------|
C|-46--------38---38---46--------38--------|-46--------38---38---46--------38--------|
C|-36---36---36---36---36---36---36---36---|-36---36---36---36---36---36---36---36---|
C|-----------------------------------------|-----------------------------------------|
C|-----------------------------------------|-----------------------------------------|


C|-----------------------------------------|-----------------------------------------|
C|-----------------------------------------|-----------------------------------------|
C|-46--------38---38---46--------38--------|-46--------38---38---46--------38--------|
C|-36---36---36---36---36---36---36---36---|-36---36---36---36---36---36---36---36---|
C|-----------------------------------------|-----------------------------------------|
C|-----------------------------------------|-----------------------------------------|


C|-----------------------------------------|-----------------------------------------|
C|-----------------------------------------|-----------------------------------------|
C|-46--------38---38---46--------38--------|-46--------38---38---46--------38--------|
C|-36---36---36---36---36---36---36---36---|-36---36---36---36---36---36---36---36---|
C|-----------------------------------------|-----------------------------------------|
C|-----------------------------------------|-----------------------------------------|


C|-----------------------------------------|-----------------------------------------|
C|-----------------------------------------|-----------------------------------------|
C|-46--------38---38---46--------38--------|-46--------38---38---46--------38--------|
C|-36---36---36---36---36---36---36---36---|-36---36---36---36---36---36---36---36---|
C|-----------------------------------------|-----------------------------------------|
C|-----------------------------------------|-----------------------------------------|


C|-----------------------------------------|-----------------------------------------|
C|-----------------------------------------|-----------------------------------------|
C|-46--------38---38---46--------38--------|-46--------38---38---46--------38--------|
C|-36---36---36---36---36---36---36---36---|-36---36---36---36---36---36---36---36---|
C|-----------------------------------------|-----------------------------------------|
C|-----------------------------------------|-----------------------------------------|


C|-----------------------------------------|-----------------------------------------|
C|-----------------------------------------|-----------------------------------------|
C|-46--------38---38---46--------38--------|-46--------38---38---46--------38--------|
C|-36---36---36---36---36---36---36---36---|-36---36---36---36---36---36---36---36---|
C|-----------------------------------------|-----------------------------------------|
C|-----------------------------------------|-----------------------------------------|


C|-----------------------------------------|-----------------------------------------|
C|-----------------------------------------|-----------------------------------------|
C|-46--------38---38---46--------38--------|-46--------38---38---46--------38--------|
C|-36---36---36---36---36---36---36---36---|-36---36---36---36---36---36---36---36---|
C|-----------------------------------------|-----------------------------------------|
C|-----------------------------------------|-----------------------------------------|


C|-----------------------------------------|-----------------------------------------|
C|-----------------------------------------|-----------------------------------------|
C|-46--------38---38---46--------38--------|-46--------38---38---46--------38--------|
C|-36---36---36---36---36---36---36---36---|-36---36---36---36---36---36---36---36---|
C|-----------------------------------------|-----------------------------------------|
C|-----------------------------------------|-----------------------------------------|


C|-----------------------------------------|-----------------------------------------|
C|-----------------------------------------|-----------------------------------------|
C|-46--------38---38---46--------38--------|-46--------38---38---46--------38--------|
C|-36---36---36---36---36---36---36---36---|-36---36---36---36---36---36---36---36---|
C|-----------------------------------------|-----------------------------------------|
C|-----------------------------------------|-----------------------------------------|


C|-----------------------------------------|-----------------------------------------|
C|-----------------------------------------|-----------------------------------------|
C|-46--------38---38---46--------38--------|-46--------38---38---46--------38--------|
C|-36---36---36---36---36---36---36---36---|-36---36---36---36---36---36---36---36---|
C|-----------------------------------------|-----------------------------------------|
C|-----------------------------------------|-----------------------------------------|


C|-----------------------------------------|-----------------------------------------|
C|-----------------------------------------|-----------------------------------------|
C|-46--------38---38---46--------38--------|-46--------38---38---46--------38--------|
C|-36---36---36---36---36---36---36---36---|-36---36---36---36---36---36---36---36---|
C|-----------------------------------------|-----------------------------------------|
C|-----------------------------------------|-----------------------------------------|


C|-----------------------------------------|-----------------------------------------|
C|-----------------------------------------|-----------------------------------------|
C|-46--------38---38---46--------38--------|-46--------38---38---46--------38--------|
C|-36---36---36---36---36---36---36---36---|-36---36---36---36---36---36---36---36---|
C|-----------------------------------------|-----------------------------------------|
C|-----------------------------------------|-----------------------------------------|


C|-----------------------------------------|-----------------------------------------|
C|-----------------------------------------|-----------------------------------------|
C|-46--------38---38---46--------38--------|-46--------38---38---46--------38--------|
C|-36---36---36---36---36---36---36---36---|-36---36---36---36---36---36---36---36---|
C|-----------------------------------------|-----------------------------------------|
C|-----------------------------------------|-----------------------------------------|


C|-----------------------------------------|-----------------------------------------|
C|-----------------------------------------|-----------------------------------------|
C|-46--------38---38---46--------38--------|-46--------38---38---46--------38--------|
C|-36---36---36---36---36---36---36---36---|-36---36---36---36---36---36---36---36---|
C|-----------------------------------------|-----------------------------------------|
C|-----------------------------------------|-----------------------------------------|


C|-----------------------------------------|-----------------------------------------|
C|-----------------------------------------|-----------------------------------------|
C|-46--------38---38---46--------38--------|-46--------38---38---46--------38--------|
C|-36---36---36---36---36---36---36---36---|-36---36---36---36---36---36---36---36---|
C|-----------------------------------------|-----------------------------------------|
C|-----------------------------------------|-----------------------------------------|


C|-----------------------------------------|-----------------------------------------|
C|-----------------------------------------|-----------------------------------------|
C|-46--------38---38---46--------38--------|-46--------38---38---46--------38--------|
C|-36---36---36---36---36---36---36---36---|-36---36---36---36---36---36---36---36---|
C|-----------------------------------------|-----------------------------------------|
C|-----------------------------------------|-----------------------------------------|


C|-----------------------------------------|-----------------------------------------|
C|-----------------------------------------|-----------------------------------------|
C|-46--------38---38---46--------38--------|-46--------38---38---46--------38--------|
C|-36---36---36---36---36---36---36---36---|-36---36---36---36---36---36---36---36---|
C|-----------------------------------------|-----------------------------------------|
C|-----------------------------------------|-----------------------------------------|


C|-----------------------------------------|-----------------------------------------|
C|-----------------------------------------|-----------------------------------------|
C|-46--------38---38---46--------38--------|-46--------38---38---46--------38--------|
C|-36---36---36---36---36---36---36---36---|-36---36---36---36---36---36---36---36---|
C|-----------------------------------------|-----------------------------------------|
C|-----------------------------------------|-----------------------------------------|


C|-----------------------------------------|-----------------------------------------|
C|-----------------------------------------|-----------------------------------------|
C|-46--------38---38---46--------38--------|-46--------38---38---46--------38--------|
C|-36---36---36---36---36---36---36---36---|-36---36---36---36---36---36---36---36---|
C|-----------------------------------------|-----------------------------------------|
C|-----------------------------------------|-----------------------------------------|


C|-----------------------------------------|-----------------------------------------|
C|-----------------------------------------|-----------------------------------------|
C|-46--------38---38---46--------38--------|-46--------38---38---46--------38--------|
C|-36---36---36---36---36---36---36---36---|-36---36---36---36---36---36---36---36---|
C|-----------------------------------------|-----------------------------------------|
C|-----------------------------------------|-----------------------------------------|


C|-----------------------------------------|-----------------------------------------|
C|-----------------------------------------|-----------------------------------------|
C|-46--------38---38---46--------38--------|-46--------38---38---46--------38--------|
C|-36---36---36---36---36---36---36---36---|-36---36---36---36---36---36---36---36---|
C|-----------------------------------------|-----------------------------------------|
C|-----------------------------------------|-----------------------------------------|


C|-----------------------------------------|-----------------------------------------|
C|-----------------------------------------|-----------------------------------------|
C|-46--------38---38---46--------38--------|-46--------38---38---46--------38--------|
C|-36---36---36---36---36---36---36---36---|-36---36---36---36---36---36---36---36---|
C|-----------------------------------------|-----------------------------------------|
C|-----------------------------------------|-----------------------------------------|


C|-----------------------------------------|-----------------------------------------|
C|-----------------------------------------|-----------------------------------------|
C|-46--------38---38---46--------38--------|-46--------38---38---46--------38--------|
C|-36---36---36---36---36---36---36---36---|-36---36---36---36---36---36---36---36---|
C|-----------------------------------------|-----------------------------------------|
C|-----------------------------------------|-----------------------------------------|


C|-----------------------------------------|-----------------------------------------|
C|-----------------------------------------|-----------------------------------------|
C|-46--------38---38---46--------38--------|-46--------38---38---46--------38--------|
C|-36---36---36---36---36---36---36---36---|-36---36---36---36---36---36---36---36---|
C|-----------------------------------------|-----------------------------------------|
C|-----------------------------------------|-----------------------------------------|


C|-----------------------------------------|-----------------------------------------|
C|-----------------------------------------|-----------------------------------------|
C|-46--------38---38---46--------38--------|-46--------38---38---46--------38--------|
C|-36---36---36---36---36---36---36---36---|-36---36---36---36---36---36---36---36---|
C|-----------------------------------------|-----------------------------------------|
C|-----------------------------------------|-----------------------------------------|


C|-----------------------------------------|-----------------------------------------|
C|-----------------------------------------|-----------------------------------------|
C|-46--------38---38---46--------38--------|-46--------38---38---46--------38--------|
C|-36---36---36---36---36---36---36---36---|-36---36---36---36---36---36---36---36---|
C|-----------------------------------------|-----------------------------------------|
C|-----------------------------------------|-----------------------------------------|


C|-----------------------------------------|-----------------------------------------|
C|-----------------------------------------|-----------------------------------------|
C|-46--------38---38---46--------38--------|-46--------38---38---46--------38--------|
C|-36---36---36---36---36---36---36---36---|-36---36---36---36---36---36---36---36---|
C|-----------------------------------------|-----------------------------------------|
C|-----------------------------------------|-----------------------------------------|


C|---------------------------------------------------|-----------------------------------------|
C|---------------------------------------------------|-----------------------------------------|
C|-46--------38---38---48---48---48---47---47---47---|-36---36---36---36---36---36---36---36---|
C|-36---36---36---36---------------------------------|-46---44---44---44---46---46---46---46---|
C|---------------------------------------------------|-40------------------40--------40--------|
C|---------------------------------------------------|-----------------------------------------|


C|-----------------------------------------|-----------------------------------------|
C|-----------------------------------------|-----------------------------------------|
C|-36---36---36---36---36---36---36---36---|-36---36---36---36---36---36---36---36---|
C|-46---44---44---44---46---46---46---46---|-46---44---44---44---46---46---46---46---|
C|-40------------------40--------40--------|-40------------------40--------40--------|
C|-----------------------------------------|-----------------------------------------|


C|-----------------------------------------|-----------------------------------------|
C|-----------------------------------------|-----------------------------------------|
C|-36---36---36---36---36---36---36---36---|-36---36---36---36---36---36---36---36---|
C|-46---44---44---44---46---46---46---46---|-46---44---44---44---46---46---46---46---|
C|-40------------------40--------40--------|-40------------------40--------40--------|
C|-----------------------------------------|-----------------------------------------|


C|-----------------------------------------|-----------------------------------------|
C|-----------------------------------------|-----------------------------------------|
C|-36---36---36---36---36---36---36---36---|-36---36---36---36---36---36---36---36---|
C|-46---44---44---44---46---46---46---46---|-46---44---44---44---46---46---46---46---|
C|-40------------------40--------40--------|-40------------------40--------40--------|
C|-----------------------------------------|-----------------------------------------|


C|-----------------------------------------|-----------------------------------------|
C|-----------------------------------------|-----------------------------------------|
C|-36---36---36---36---36---36---36---36---|-36---36---36---36---36---36---36---36---|
C|-46---44---44---44---46---46---46---46---|-46---44---44---44---46---46---46---46---|
C|-40------------------40--------40--------|-40------------------40--------40--------|
C|-----------------------------------------|-----------------------------------------|


C|-----------------------------------------|-----------------------------------------|
C|-----------------------------------------|-----------------------------------------|
C|-36---36---36---36---36---36---36---36---|-36---36---36---36---36---36---36---36---|
C|-46---44---44---44---46---46---46---46---|-46---44---44---44---46---46---46---46---|
C|-40------------------40--------40--------|-40------------------40--------40--------|
C|-----------------------------------------|-----------------------------------------|


C|-----------------------------------------|-----------------------------------------|
C|-----------------------------------------|-----------------------------------------|
C|-36---36---36---36---36---36---36---36---|-36---36---36---36---36---36---36---36---|
C|-46---44---44---44---46---46---46---46---|-46---44---44---44---46---46---46---46---|
C|-40------------------40--------40--------|-40------------------40--------40--------|
C|-----------------------------------------|-----------------------------------------|


C|-----------------------------------------|-----------------------------------------|
C|-----------------------------------------|-----------------------------------------|
C|-36---36---36---36---36---36---36---36---|-36---36---36---36---36---36---36---36---|
C|-46---44---44---44---46---46---46---46---|-46---44---44---44---46---46---46---46---|
C|-40------------------40--------40--------|-40------------------40--------40--------|
C|-----------------------------------------|-----------------------------------------|


C|---------------------------------------------------|-----------------------------------------------------------------|
C|---------------------------------------------------|-46--------------------------------------------------------------|
C|-36---36---36---36---------------------------------|-40------38------40------38------40------38------40------38------|
C|-46---44---44---44---------------------------------|-36--36--36--36--36--36--36--36--36--36--36--36--36--36--36--36--|
C|-40------------------40---40---40---40---40---40---|-----------------------------------------------------------------|
C|---------------------------------------------------|-----------------------------------------------------------------|


C|-----------------------------------------------------------------|-----------------------------------------------------------------|
C|-46--------------------------------------------------------------|-46------------------------------46------------------------------|
C|-40------38------40------38------40------38------40------38------|-40------38------40------38------40------38------40------38------|
C|-36--36--36--36--36--36--36--36--36--36--36--36--36--36--36--36--|-36--36--36--36--36--36--36--36--36--36--36--36--36--36--36--36--|
C|-----------------------------------------------------------------|-----------------------------------------------------------------|
C|-----------------------------------------------------------------|-----------------------------------------------------------------|


C|-----------------------------------------------------------------|-----------------------------------------------------------------|
C|-46--------------------------------------------------------------|-46--------------------------------------------------------------|
C|-40------38------40------38------40------38------40------38------|-40------38------40------38------40------38------40------38------|
C|-36--36--36--36--36--36--36--36--36--36--36--36--36--36--36--36--|-36--36--36--36--36--36--36--36--36--36--36--36--36--36--36--36--|
C|-----------------------------------------------------------------|-----------------------------------------------------------------|
C|-----------------------------------------------------------------|-----------------------------------------------------------------|


C|-----------------------------------------------------------------|-----------------------------------------------------------------|
C|-46--------------------------------------------------------------|-46------------------------------46------------------------------|
C|-40------38------40------38------40------38------40------38------|-40------38------40------38------40------38------40------38------|
C|-36--36--36--36--36--36--36--36--36--36--36--36--36--36--36--36--|-36--36--36--36--36--36--36--36--36--36--36--36--36--36--36--36--|
C|-----------------------------------------------------------------|-----------------------------------------------------------------|
C|-----------------------------------------------------------------|-----------------------------------------------------------------|


C|-----------------------------------------------------------------|-----------------------------------------------------------------|
C|-46--------------------------------------------------------------|-46--------------------------------------------------------------|
C|-40------38------40------38------40------38------40------38------|-40------38------40------38------40------38------40------38------|
C|-36--36--36--36--36--36--36--36--36--36--36--36--36--36--36--36--|-36--36--36--36--36--36--36--36--36--36--36--36--36--36--36--36--|
C|-----------------------------------------------------------------|-----------------------------------------------------------------|
C|-----------------------------------------------------------------|-----------------------------------------------------------------|


C|-----------------------------------------------------------------|-----------------------------------------------------------------|
C|-46--------------------------------------------------------------|-46------------------------------46------------------------------|
C|-40------38------40------38------40------38------40------38------|-40------38------40------38------40------38------40------38------|
C|-36--36--36--36--36--36--36--36--36--36--36--36--36--36--36--36--|-36--36--36--36--36--36--36--36--36--36--36--36--36--36--36--36--|
C|-----------------------------------------------------------------|-----------------------------------------------------------------|
C|-----------------------------------------------------------------|-----------------------------------------------------------------|


C|-----------------------------------------------------------------|-----------------------------------------------------------------|
C|-46--------------------------------------------------------------|-46--------------------------------------------------------------|
C|-40------38------40------38------40------38------40------38------|-40------38------40------38------40------38------40------38------|
C|-36--36--36--36--36--36--36--36--36--36--36--36--36--36--36--36--|-36--36--36--36--36--36--36--36--36--36--36--36--36--36--36--36--|
C|-----------------------------------------------------------------|-----------------------------------------------------------------|
C|-----------------------------------------------------------------|-----------------------------------------------------------------|


C|-----------------------------------------------------------------|-----------------------------------------------------------------|
C|-46--------------------------------------------------------------|-46------------------------------46------------------------------|
C|-40------38------40------38------40------38------40------38------|-40------38------40------38------40------38------40------38------|
C|-36--36--36--36--36--36--36--36--36--36--36--36--36--36--36--36--|-36--36--36--36--36--36--36--36--36--36--36--36--36--36--36--36--|
C|-----------------------------------------------------------------|-----------------------------------------------------------------|
C|-----------------------------------------------------------------|-----------------------------------------------------------------|


C|---------------------------------------------------------------|-----------------------------------------|
C|-46------------------------------------------------------------|-40--------59--------40--------59---59---|
C|-40------38------40------38------47---47---47---48---48---48---|-36---36---36---36---36---36---36---36---|
C|-36--36--36--36--36--36--36--36--------------------------------|-----------------------------------------|
C|---------------------------------------------------------------|-----------------------------------------|
C|---------------------------------------------------------------|-----------------------------------------|


C|-----------------------------------------|-----------------------------------------|
C|-40--------59--------40--------59---59---|-40--------59--------40--------59---59---|
C|-36---36---36---36---36---36---36---36---|-36---36---36---36---36---36---36---36---|
C|-----------------------------------------|-----------------------------------------|
C|-----------------------------------------|-----------------------------------------|
C|-----------------------------------------|-----------------------------------------|


C|-----------------------------------------|-----------------------------------------|
C|-40--------59--------40--------59---59---|-40--------59--------40--------59---59---|
C|-36---36---36---36---36---36---36---36---|-36---36---36---36---36---36---36---36---|
C|-----------------------------------------|-----------------------------------------|
C|-----------------------------------------|-----------------------------------------|
C|-----------------------------------------|-----------------------------------------|


C|-----------------------------------------|-----------------------------------------|
C|-40--------59--------40--------59---59---|-40--------59--------40--------59---59---|
C|-36---36---36---36---36---36---36---36---|-36---36---36---36---36---36---36---36---|
C|-----------------------------------------|-----------------------------------------|
C|-----------------------------------------|-----------------------------------------|
C|-----------------------------------------|-----------------------------------------|


C|-----------------------------------------|-----------------------------------------|
C|-40--------59--------40--------59---59---|-40--------59--------40--------59---59---|
C|-36---36---36---36---36---36---36---36---|-36---36---36---36---36---36---36---36---|
C|-----------------------------------------|-----------------------------------------|
C|-----------------------------------------|-----------------------------------------|
C|-----------------------------------------|-----------------------------------------|


C|-----------------------------------------|-----------------------------------------|
C|-40--------59--------40--------59---59---|-40--------59--------40--------59---59---|
C|-36---36---36---36---36---36---36---36---|-36---36---36---36---36---36---36---36---|
C|-----------------------------------------|-----------------------------------------|
C|-----------------------------------------|-----------------------------------------|
C|-----------------------------------------|-----------------------------------------|


C|-----------------------------------------|-----------------------------------------|
C|-40--------59--------40--------59---59---|-40--------59--------40--------59---59---|
C|-36---36---36---36---36---36---36---36---|-36---36---36---36---36---36---36---36---|
C|-----------------------------------------|-----------------------------------------|
C|-----------------------------------------|-----------------------------------------|
C|-----------------------------------------|-----------------------------------------|


C|-----------------------------------------|-----------------------------------------|
C|-40--------59--------40--------59---59---|-40--------59--------40--------59---59---|
C|-36---36---36---36---36---36---36---36---|-36---36---36---36---36---36---36---36---|
C|-----------------------------------------|-----------------------------------------|
C|-----------------------------------------|-----------------------------------------|
C|-----------------------------------------|-----------------------------------------|


C|-----------------------------------------------------------|-----------------------------------------------------------------|
C|-40---40--40--40---40--40--40--40--40--40--40--40--40--40--|-36--36--36--36--36--36--36--36--36--36--36--36--36--36--36--36--|
C|-46------------------------46--------------46--------------|-40------46------40------46------40------46------40------46------|
C|-----------------------------------------------------------|-----------------------------------------------------------------|
C|-----------------------------------------------------------|-----------------------------------------------------------------|
C|-----------------------------------------------------------|-----------------------------------------------------------------|


C|-----------------------------------------------------------------|-----------------------------------------------------------------|
C|-36--36--36--36--36--36--36--36--36--36--36--36--36--36--36--36--|-36--36--36--36--36--36--36--36--36--36--36--36--36--36--36--36--|
C|-40------46------40------46------40------46------40------46------|-40------46------40------46------40------46------40------46------|
C|-----------------------------------------------------------------|-----------------------------------------------------------------|
C|-----------------------------------------------------------------|-----------------------------------------------------------------|
C|-----------------------------------------------------------------|-----------------------------------------------------------------|


C|-----------------------------------------------------------------|-----------------------------------------------------------------|
C|-36--36--36--36--36--36--36--36--36--36--36--36--36--36--36--36--|-36--36--36--36--36--36--36--36--36--36--36--36--36--36--36--36--|
C|-40------46------40------46------40------46------40------46------|-40------46------40------46------40------46------40------46------|
C|-----------------------------------------------------------------|-----------------------------------------------------------------|
C|-----------------------------------------------------------------|-----------------------------------------------------------------|
C|-----------------------------------------------------------------|-----------------------------------------------------------------|


C|-----------------------------------------------------------------|-----------------------------------------------------------------|
C|-36--36--36--36--36--36--36--36--36--36--36--36--36--36--36--36--|-36--36--36--36--36--36--36--36--36--36--36--36--36--36--36--36--|
C|-40------46------40------46------40------46------40------46------|-40------46------40------46------40------46------40------46------|
C|-----------------------------------------------------------------|-----------------------------------------------------------------|
C|-----------------------------------------------------------------|-----------------------------------------------------------------|
C|-----------------------------------------------------------------|-----------------------------------------------------------------|


C|-----------------------------------------------------------------|-----------------------------------------------------------------|
C|-36--36--36--36--36--36--36--36--36--36--36--36--36--36--36--36--|-36--36--36--36--36--36--36--36--36--36--36--36--36--36--36--36--|
C|-40------46------40------46------40------46------40------46------|-40------46------40------46------40------46------40------46------|
C|-----------------------------------------------------------------|-----------------------------------------------------------------|
C|-----------------------------------------------------------------|-----------------------------------------------------------------|
C|-----------------------------------------------------------------|-----------------------------------------------------------------|


C|-----------------------------------------------------------------|-----------------------------------------------------------------|
C|-36--36--36--36--36--36--36--36--36--36--36--36--36--36--36--36--|-36--36--36--36--36--36--36--36--36--36--36--36--36--36--36--36--|
C|-40------46------40------46------40------46------40------46------|-40------46------40------46------40------46------40------46------|
C|-----------------------------------------------------------------|-----------------------------------------------------------------|
C|-----------------------------------------------------------------|-----------------------------------------------------------------|
C|-----------------------------------------------------------------|-----------------------------------------------------------------|


C|-----------------------------------------------------------------|-----------------------------------------------------------------|
C|-36--36--36--36--36--36--36--36--36--36--36--36--36--36--36--36--|-36--36--36--36--36--36--36--36--36--36--36--36--36--36--36--36--|
C|-40------46------40------46------40------46------40------46------|-40------46------40------46------40------46------40------46------|
C|-----------------------------------------------------------------|-----------------------------------------------------------------|
C|-----------------------------------------------------------------|-----------------------------------------------------------------|
C|-----------------------------------------------------------------|-----------------------------------------------------------------|


C|-----------------------------------------------------------------|-----------------------------------------------------------------|
C|-36--36--36--36--36--36--36--36--36--36--36--36--36--36--36--36--|-36--36--36--36--36--36--36--36--36--36--36--36--36--36--36--36--|
C|-40------46------40------46------40------46------40------46------|-40------46------40------46------40------46------40------46------|
C|-----------------------------------------------------------------|-----------------------------------------------------------------|
C|-----------------------------------------------------------------|-----------------------------------------------------------------|
C|-----------------------------------------------------------------|-----------------------------------------------------------------|


C|------------------------------------------------|-----------------------------------------|
C|-36--36--36--36-----------------46--------------|-----------------------------------------|
C|-40------46------40---40---40---38----38---38---|-46--------38---38---46--------38--------|
C|--------------------------------------36---36---|-36---36---36---36---36---36---36---36---|
C|------------------------------------------------|-----------------------------------------|
C|------------------------------------------------|-----------------------------------------|


C|-----------------------------------------|-----------------------------------------|
C|-----------------------------------------|-----------------------------------------|
C|-46--------38---38---46--------38--------|-46--------38---38---46--------38--------|
C|-36---36---36---36---36---36---36---36---|-36---36---36---36---36---36---36---36---|
C|-----------------------------------------|-----------------------------------------|
C|-----------------------------------------|-----------------------------------------|


C|-----------------------------------------|-----------------------------------------|
C|-----------------------------------------|-----------------------------------------|
C|-46--------38---38---46--------38--------|-46--------38---38---46--------38--------|
C|-36---36---36---36---36---36---36---36---|-36---36---36---36---36---36---36---36---|
C|-----------------------------------------|-----------------------------------------|
C|-----------------------------------------|-----------------------------------------|


C|-----------------------------------------|-----------------------------------------|
C|-----------------------------------------|-----------------------------------------|
C|-46--------38---38---46--------38--------|-46--------38---38---46--------38--------|
C|-36---36---36---36---36---36---36---36---|-36---36---36---36---36---36---36---36---|
C|-----------------------------------------|-----------------------------------------|
C|-----------------------------------------|-----------------------------------------|


C|-----------------------------------------|-----------------------------------------|
C|-----------------------------------------|-----------------------------------------|
C|-46--------38---38---46--------38--------|-46--------38---38---46--------38--------|
C|-36---36---36---36---36---36---36---36---|-36---36---36---36---36---36---36---36---|
C|-----------------------------------------|-----------------------------------------|
C|-----------------------------------------|-----------------------------------------|


C|-----------------------------------------|-----------------------------------------|
C|-----------------------------------------|-----------------------------------------|
C|-46--------38---38---46--------38--------|-46--------38---38---46--------38--------|
C|-36---36---36---36---36---36---36---36---|-36---36---36---36---36---36---36---36---|
C|-----------------------------------------|-----------------------------------------|
C|-----------------------------------------|-----------------------------------------|


C|-----------------------------------------|-----------------------------------------|
C|-----------------------------------------|-----------------------------------------|
C|-46--------38---38---46--------38--------|-46--------38---38---46--------38--------|
C|-36---36---36---36---36---36---36---36---|-36---36---36---36---36---36---36---36---|
C|-----------------------------------------|-----------------------------------------|
C|-----------------------------------------|-----------------------------------------|


C|-----------------------------------------|-----------------------------------------|
C|-----------------------------------------|-----------------------------------------|
C|-46--------38---38---46--------38--------|-46--------38---38---46--------38--------|
C|-36---36---36---36---36---36---36---36---|-36---36---36---36---36---36---36---36---|
C|-----------------------------------------|-----------------------------------------|
C|-----------------------------------------|-----------------------------------------|


C|---------------------------------------------------|---------|---------|------------------------------------------------|
C|---------------------------------------------------|---------|---------|------------------------------------------------|
C|-46--------38---38---48---48---48---47---47---47---|-40------|-40------|-49---------------------------------------------|
C|-36---36---36---36---------------------------------|-57------|-57------|-57----42----42--------42----42----42-----------|
C|---------------------------------------------------|-49------|-49------|-40----------36---36---40----36---------36--36--|
C|---------------------------------------------------|---------|---------|-------------36---36---------36---------36--36--|


C|------------------------------------------------|------------------------------------------------|
C|------------------------------------------------|------------------------------------------------|
C|------------------------------------------------|------------------------------------------------|
C|-42----42----42--------42----42----42-----------|-42----42----42--------42----42----42-----------|
C|-40----------36---36---40----36---------36--36--|-40----------36---36---40----36---------36--36--|
C|-------------36---36---------36---------36--36--|-------------36---36---------36---------36--36--|


C|------------------------------------------------|------------------------------------------------|
C|------------------------------------------------|------------------------------------------------|
C|------------------------------------------------|-49---------------------------------------------|
C|-42----42----42--------42----42----42-----------|-57----42----42--------42----42----42-----------|
C|-40----------36---36---40----36---------36--36--|-40----------36---36---40----36---------36--36--|
C|-------------36---36---------36---------36--36--|-------------36---36---------36---------36--36--|


C|------------------------------------------------|------------------------------------------------|
C|------------------------------------------------|------------------------------------------------|
C|------------------------------------------------|------------------------------------------------|
C|-42----42----42--------42----42----42-----------|-42----42----42--------42----42----42-----------|
C|-40----------36---36---40----36---------36--36--|-40----------36---36---40----36---------36--36--|
C|-------------36---36---------36---------36--36--|-------------36---36---------36---------36--36--|


C|------------------------------------------------|------------------------------------------------|
C|------------------------------------------------|------------------------------------------------|
C|------------------------------------------------|-49---------------------------------------------|
C|-42----42----42--------42----42----42-----------|-57----42----42--------42----42----42-----------|
C|-40----------36---36---40----36---------36--36--|-40----------36---36---40----36---------36--36--|
C|-------------36---36---------36---------36--36--|-------------36---36---------36---------36--36--|


C|------------------------------------------------|------------------------------------------------|
C|------------------------------------------------|------------------------------------------------|
C|------------------------------------------------|------------------------------------------------|
C|-42----42----42--------42----42----42-----------|-42----42----42--------42----42----42-----------|
C|-40----------36---36---40----36---------36--36--|-40----------36---36---40----36---------36--36--|
C|-------------36---36---------36---------36--36--|-------------36---36---------36---------36--36--|


C|------------------------------------------------|------------------------------------------------|
C|------------------------------------------------|------------------------------------------------|
C|------------------------------------------------|-49---------------------------------------------|
C|-42----42----42--------42----42----42-----------|-57----42----42--------42----42----42-----------|
C|-40----------36---36---40----36---------36--36--|-40----------36---36---40----36---------36--36--|
C|-------------36---36---------36---------36--36--|-------------36---36---------36---------36--36--|


C|------------------------------------------------|------------------------------------------------|
C|------------------------------------------------|------------------------------------------------|
C|------------------------------------------------|------------------------------------------------|
C|-42----42----42--------42----42----42-----------|-42----42----42--------42----42----42-----------|
C|-40----------36---36---40----36---------36--36--|-40----------36---36---40----36---------36--36--|
C|-------------36---36---------36---------36--36--|-------------36---36---------36---------36--36--|


C|------------------------------------------------|---------|---------|---------|---------|
C|------------------------------------------------|---------|---------|---------|---------|
C|------------------------------------------------|-49------|-%-------|-%-------|-%-------|
C|-42----42----42--------42----42----42-----------|-57------|-%-------|-%-------|-%-------|
C|-40----------36---36---40----36---------36--36--|-40------|---------|---------|---------|
C|-------------36---36---------36---------36--36--|---------|---------|---------|---------|

    

Nézd meg a videót és ismerd meg a leggyorsabb utat, hogyan tanulhatod meg kedvenc számaid gitáron!