Hogyan játszd el gitáron a Unknown Artist – Dreams Of Glory dalt?

Unknown Artist Dreams Of Glory – GITÁR PRO TAB, KOTTA, AKKORDOK

Kotta típusa: Keys1

(Általában egy zeneszám minden kottája: gitár, szólógitár, basszusgitár, ének, zongora, dob stb. megtalálható az oldalon, de mindegyik egy külön bejegyzésben. Ha egy másik hangszer gitártabos kottáját keresed, akkor az oldal alján vagy a keresőben megtalálod. Sokszor a zenekar tagjának a neve lesz a kotta kategóriája.)

        


E|---------|---------|---------|-----------------|---------|---------|---------|-----------------|
B|-8-------|-7-------|-8-------|-7-------5-------|-8-------|-7-------|-8-------|-3-------5-------|
G|-9-------|-7-------|-9-------|-7-------5-------|-9-------|-7-------|-9-------|-4-------5-------|
D|-9-------|-7-------|-9-------|-7-------5-------|-9-------|-7-------|-9-------|-4-------5-------|
A|---------|---------|---------|-----------------|---------|---------|---------|-----------------|
E|---------|---------|---------|-----------------|---------|---------|---------|-----------------|


E|---------|---------|---------|-----------------|---------|---------|---------|-----------------|
B|-8-------|-7-------|-8-------|-7-------5-------|-8-------|-7-------|-8-------|-3-------5-------|
G|-9-------|-7-------|-9-------|-7-------5-------|-9-------|-7-------|-9-------|-4-------5-------|
D|-9-------|-7-------|-9-------|-7-------5-------|-9-------|-7-------|-9-------|-4-------5-------|
A|---------|---------|---------|-----------------|---------|---------|---------|-----------------|
E|---------|---------|---------|-----------------|---------|---------|---------|-----------------|


E|---------|---------|---------|-----------------|---------|---------|---------|-----------------|
B|-8-------|-7-------|-8-------|-7-------5-------|-8-------|-7-------|-8-------|-3-------5-------|
G|-9-------|-7-------|-9-------|-7-------5-------|-9-------|-7-------|-9-------|-4-------5-------|
D|-9-------|-7-------|-9-------|-7-------5-------|-9-------|-7-------|-9-------|-4-------5-------|
A|---------|---------|---------|-----------------|---------|---------|---------|-----------------|
E|---------|---------|---------|-----------------|---------|---------|---------|-----------------|


E|-----------------|-----------------|-----------------|---------|-----------------|
B|-3-------6-------|-5-------1-------|-1-------5-------|-3-------|-3-------6-------|
G|-3-------7-------|-5-------2-------|-2-------5-------|-3-------|-3-------7-------|
D|-3-------7-------|-5-------2-------|-2-------5-------|-3-------|-3-------7-------|
A|-----------------|-----------------|-----------------|---------|-----------------|
E|-----------------|-----------------|-----------------|---------|-----------------|


E|-----------------|-----------------|---------|-----------------|-----------------|
B|-5-------1-------|-1-------5-------|-3-------|-3-------6-------|-5-------1-------|
G|-5-------2-------|-2-------5-------|-3-------|-3-------7-------|-5-------2-------|
D|-5-------2-------|-2-------5-------|-3-------|-3-------7-------|-5-------2-------|
A|-----------------|-----------------|---------|-----------------|-----------------|
E|-----------------|-----------------|---------|-----------------|-----------------|


E|-----------------|---------|-----------------|-----------------|-----------------|
B|-1-------5-------|-3-------|-3-------6-------|-5-------1-------|-1-------5-------|
G|-2-------5-------|-3-------|-3-------7-------|-5-------2-------|-2-------5-------|
D|-2-------5-------|-3-------|-3-------7-------|-5-------2-------|-2-------5-------|
A|-----------------|---------|-----------------|-----------------|-----------------|
E|-----------------|---------|-----------------|-----------------|-----------------|


E|---------|-----------------|-----------------|-----------------|---------|-----------------|
B|-3-------|-3-------6-------|-5-------1-------|-1-------5-------|-3-------|-3-------6-------|
G|-3-------|-3-------7-------|-5-------2-------|-2-------5-------|-3-------|-3-------7-------|
D|-3-------|-3-------7-------|-5-------2-------|-2-------5-------|-3-------|-3-------7-------|
A|---------|-----------------|-----------------|-----------------|---------|-----------------|
E|---------|-----------------|-----------------|-----------------|---------|-----------------|


E|-----------------|-----------------|---------|-----------------|-----------------|
B|-5-------1-------|-1-------5-------|-3-------|-3-------6-------|-5-------1-------|
G|-5-------2-------|-2-------5-------|-3-------|-3-------7-------|-5-------2-------|
D|-5-------2-------|-2-------5-------|-3-------|-3-------7-------|-5-------2-------|
A|-----------------|-----------------|---------|-----------------|-----------------|
E|-----------------|-----------------|---------|-----------------|-----------------|


E|-----------------|---------|-----------------|-----------------|-----------------|
B|-1-------5-------|-3-------|-3-------6-------|-5-------1-------|-1-------5-------|
G|-2-------5-------|-3-------|-3-------7-------|-5-------2-------|-2-------5-------|
D|-2-------5-------|-3-------|-3-------7-------|-5-------2-------|-2-------5-------|
A|-----------------|---------|-----------------|-----------------|-----------------|
E|-----------------|---------|-----------------|-----------------|-----------------|


E|---------|---------|---------|-----------------|---------|---------|---------|-----------------|
B|-3-------|-8-------|-7-------|-5-------7-------|-8-------|-8-------|-7-------|-5-------7-------|
G|-3-------|-9-------|-7-------|-5-------7-------|-9-------|-9-------|-7-------|-5-------7-------|
D|-3-------|-9-------|-7-------|-5-------7-------|-9-------|-9-------|-7-------|-5-------7-------|
A|---------|---------|---------|-----------------|---------|---------|---------|-----------------|
E|---------|---------|---------|-----------------|---------|---------|---------|-----------------|


E|---------|---------|---------|-----------------|---------|---------|---------|---------|
B|-8-------|-8-------|-7-------|-5-------7-------|-8-------|-8-------|-5-------|-8-------|
G|-9-------|-9-------|-7-------|-5-------7-------|-9-------|-9-------|-5-------|-9-------|
D|-9-------|-9-------|-7-------|-5-------7-------|-9-------|-9-------|-5-------|-9-------|
A|---------|---------|---------|-----------------|---------|---------|---------|---------|
E|---------|---------|---------|-----------------|---------|---------|---------|---------|


E|---------|---------|---------|---------|---------|---------|---------|---------|---------|
B|-7-------|-8-------|-5-------|-8-------|-7-------|-8-------|-5-------|-8-------|-7-------|
G|-7-------|-9-------|-5-------|-9-------|-7-------|-9-------|-5-------|-9-------|-7-------|
D|-7-------|-9-------|-5-------|-9-------|-7-------|-9-------|-5-------|-9-------|-7-------|
A|---------|---------|---------|---------|---------|---------|---------|---------|---------|
E|---------|---------|---------|---------|---------|---------|---------|---------|---------|


E|---------|---------|---------|---------|---------|---------|---------|---------|---------|
B|-8-------|-5-------|-8-------|-7-------|-8-------|-3-------|-6-------|-5-------|-1-------|
G|-9-------|-5-------|-9-------|-7-------|-9-------|-3-------|-7-------|-5-------|-2-------|
D|-9-------|-5-------|-9-------|-7-------|-9-------|-3-------|-7-------|-5-------|-2-------|
A|---------|---------|---------|---------|---------|---------|---------|---------|---------|
E|---------|---------|---------|---------|---------|---------|---------|---------|---------|


E|---------|---------|---------|---------|---------|---------|---------|---------|---------|
B|-1-------|-5-------|-3-------|-3-------|-3-------|-6-------|-5-------|-1-------|-1-------|
G|-2-------|-5-------|-3-------|-3-------|-3-------|-7-------|-5-------|-2-------|-2-------|
D|-2-------|-5-------|-3-------|-3-------|-3-------|-7-------|-5-------|-2-------|-2-------|
A|---------|---------|---------|---------|---------|---------|---------|---------|---------|
E|---------|---------|---------|---------|---------|---------|---------|---------|---------|


E|---------|---------|---------|---------|---------|---------|---------|---------|---------|
B|-5-------|-3-------|-3-------|-3-------|-6-------|-5-------|-1-------|-1-------|-5-------|
G|-5-------|-3-------|-3-------|-3-------|-7-------|-5-------|-2-------|-2-------|-5-------|
D|-5-------|-3-------|-3-------|-3-------|-7-------|-5-------|-2-------|-2-------|-5-------|
A|---------|---------|---------|---------|---------|---------|---------|---------|---------|
E|---------|---------|---------|---------|---------|---------|---------|---------|---------|


E|---------|---------|---------|---------|---------|---------|---------|---------|---------|
B|-3-------|-3-------|-3-------|-6-------|-5-------|-1-------|-1-------|-5-------|-3-------|
G|-3-------|-3-------|-3-------|-7-------|-5-------|-2-------|-2-------|-5-------|-3-------|
D|-3-------|-3-------|-3-------|-7-------|-5-------|-2-------|-2-------|-5-------|-3-------|
A|---------|---------|---------|---------|---------|---------|---------|---------|---------|
E|---------|---------|---------|---------|---------|---------|---------|---------|---------|


E|---------|---------|---------|---------|---------|---------|---------|---------|---------|
B|-3-------|-5-------|-8-------|-7-------|-8-------|-5-------|-8-------|-7-------|-8-------|
G|-3-------|-5-------|-9-------|-7-------|-9-------|-5-------|-9-------|-7-------|-9-------|
D|-3-------|-5-------|-9-------|-7-------|-9-------|-5-------|-9-------|-7-------|-9-------|
A|---------|---------|---------|---------|---------|---------|---------|---------|---------|
E|---------|---------|---------|---------|---------|---------|---------|---------|---------|


E|---------|---------|---------|---------|---------|---------|---------|---------|-2-------|
B|-5-------|-8-------|-7-------|-8-------|-5-------|-8-------|-7-------|-8-------|-2-------|
G|-5-------|-9-------|-7-------|-9-------|-5-------|-9-------|-7-------|-9-------|-2-------|
D|-5-------|-9-------|-7-------|-9-------|-5-------|-9-------|-7-------|-9-------|---------|
A|---------|---------|---------|---------|---------|---------|---------|---------|---------|
E|---------|---------|---------|---------|---------|---------|---------|---------|---------|


E|-2-------|-7------9------|-2-------|-2-------|-2-------|-7------9------|-2-------|
B|-2-------|-7------9------|-2-------|-2-------|-2-------|-7------9------|-2-------|
G|-2-------|-8------10-----|-2-------|-2-------|-2-------|-8------10-----|-2-------|
D|---------|---------------|---------|---------|---------|---------------|---------|
A|---------|---------------|---------|---------|---------|---------------|---------|
E|---------|---------------|---------|---------|---------|---------------|---------|


E|-2-------|-2-------|-7------9------|-2-------|-2-------|-2-------|-7------9------|
B|-2-------|-2-------|-7------9------|-2-------|-2-------|-2-------|-7------9------|
G|-2-------|-2-------|-8------10-----|-2-------|-2-------|-2-------|-8------10-----|
D|---------|---------|---------------|---------|---------|---------|---------------|
A|---------|---------|---------------|---------|---------|---------|---------------|
E|---------|---------|---------------|---------|---------|---------|---------------|


E|-2-------|-5-------|-5-------|-1------3------|-5-------|-5-------|-5-------|-1------3------|
B|-2-------|-6-------|-6-------|-3------5------|-6-------|-6-------|-6-------|-3------5------|
G|-2-------|-7-------|-7-------|-3------5------|-7-------|-7-------|-7-------|-3------5------|
D|---------|---------|---------|---------------|---------|---------|---------|---------------|
A|---------|---------|---------|---------------|---------|---------|---------|---------------|
E|---------|---------|---------|---------------|---------|---------|---------|---------------|


E|-5-------|-5-------|-5-------|-1------3------|-5-------|-5-------|-5-------|-1------3------|
B|-6-------|-6-------|-6-------|-3------5------|-6-------|-6-------|-6-------|-3------5------|
G|-7-------|-7-------|-7-------|-3------5------|-7-------|-7-------|-7-------|-3------5------|
D|---------|---------|---------|---------------|---------|---------|---------|---------------|
A|---------|---------|---------|---------------|---------|---------|---------|---------------|
E|---------|---------|---------|---------------|---------|---------|---------|---------------|


E|-5-------|-5-------|-5-------|-5-------|-5-------|-5-------|-5-------|-5-------|-8-------|
B|-6-------|-1-------|-1-------|-3-------|-6-------|-1-------|-1-------|-3-------|-5-------|
G|-7-------|-2-------|-2-------|-2-------|-5-------|-2-------|-2-------|-2-------|-5-------|
D|---------|---------|---------|---------|---------|---------|---------|---------|---------|
A|---------|---------|---------|---------|---------|---------|---------|---------|---------|
E|---------|---------|---------|---------|---------|---------|---------|---------|---------|


E|-5-------|-5-------|-5-------|-5-------|-5-------|-5-------|-5-------|-5-------|-2-------|
B|-1-------|-1-------|-3-------|-6-------|-1-------|-1-------|-3-------|-6-------|-3-------|
G|-2-------|-2-------|-2-------|-5-------|-2-------|-2-------|-2-------|-5-------|-4-------|
D|---------|---------|---------|---------|---------|---------|---------|---------|---------|
A|---------|---------|---------|---------|---------|---------|---------|---------|---------|
E|---------|---------|---------|---------|---------|---------|---------|---------|---------|


E|-0-------|--------0------|-2-------|-2-------|-0-------|--------0------|-2-------|
B|-2-------|-3------2------|-3-------|-3-------|-2-------|-3------2------|-3-------|
G|-2-------|-4------2------|-4-------|-4-------|-2-------|-4------2------|-4-------|
D|---------|-5-------------|---------|---------|---------|-5-------------|---------|
A|---------|---------------|---------|---------|---------|---------------|---------|
E|---------|---------------|---------|---------|---------|---------------|---------|


E|-2-------|-0-------|--------0------|-2-------|-2-------|-0-------|--------0------|
B|-3-------|-2-------|-3------2------|-3-------|-3-------|-2-------|-3------2------|
G|-4-------|-2-------|-4------2------|-4-------|-4-------|-2-------|-4------2------|
D|---------|---------|-5-------------|---------|---------|---------|-5-------------|
A|---------|---------|---------------|---------|---------|---------|---------------|
E|---------|---------|---------------|---------|---------|---------|---------------|


E|-2-------|---------|---------|---------|---------|---------|---------|---------|---------|
B|-3-------|-5-------|-8-------|-7-------|-8-------|-5-------|-8-------|-7-------|-8-------|
G|-4-------|-5-------|-9-------|-7-------|-9-------|-5-------|-9-------|-7-------|-9-------|
D|---------|-5-------|-9-------|-7-------|-9-------|-5-------|-9-------|-7-------|-9-------|
A|---------|---------|---------|---------|---------|---------|---------|---------|---------|
E|---------|---------|---------|---------|---------|---------|---------|---------|---------|


E|---------|---------|---------|---------|---------|---------|---------|---------|---------|
B|-5-------|-8-------|-7-------|-8-------|-5-------|-8-------|-7-------|-8-------|-3-------|
G|-5-------|-9-------|-7-------|-9-------|-5-------|-9-------|-7-------|-9-------|-4-------|
D|-5-------|-9-------|-7-------|-9-------|-5-------|-9-------|-7-------|-9-------|-4-------|
A|---------|---------|---------|---------|---------|---------|---------|---------|---------|
E|---------|---------|---------|---------|---------|---------|---------|---------|---------|


E|---------|-----------------|-----------------|-----------------|---------|-----------------|
B|-3-------|-3-------6-------|-5-------1-------|-1-------5-------|-3-------|-3-------6-------|
G|-4-------|-3-------7-------|-5-------2-------|-2-------5-------|-3-------|-3-------7-------|
D|-4-------|-3-------7-------|-5-------2-------|-2-------5-------|-3-------|-3-------7-------|
A|---------|-----------------|-----------------|-----------------|---------|-----------------|
E|---------|-----------------|-----------------|-----------------|---------|-----------------|


E|-----------------|-----------------|---------|-----------------|-----------------|
B|-5-------1-------|-1-------5-------|-3-------|-3-------6-------|-5-------1-------|
G|-5-------2-------|-2-------5-------|-3-------|-3-------7-------|-5-------2-------|
D|-5-------2-------|-2-------5-------|-3-------|-3-------7-------|-5-------2-------|
A|-----------------|-----------------|---------|-----------------|-----------------|
E|-----------------|-----------------|---------|-----------------|-----------------|


E|-----------------|---------|-----------------|-----------------|-----------------|
B|-1-------5-------|-3-------|-3-------6-------|-5-------1-------|-1-------5-------|
G|-2-------5-------|-3-------|-3-------7-------|-5-------2-------|-2-------5-------|
D|-2-------5-------|-3-------|-3-------7-------|-5-------2-------|-2-------5-------|
A|-----------------|---------|-----------------|-----------------|-----------------|
E|-----------------|---------|-----------------|-----------------|-----------------|


E|---------|---------|---------|---------|---------|
B|-3-------|-3-------|-3-------|-3-------|-3-------|
G|-3-------|-3-------|-3-------|-3-------|-3-------|
D|-3-------|-3-------|-3-------|-3-------|-3-------|
A|---------|---------|---------|---------|---------|
E|---------|---------|---------|---------|---------|

    

Nézd meg a videót és ismerd meg a leggyorsabb utat, hogyan tanulhatod meg kedvenc számaid gitáron!