Hogyan játszd el gitáron a Unknown Artist – dalt?

Unknown Artist – GITÁR PRO TAB, KOTTA, AKKORDOK

Kotta típusa: Percussions

(Általában egy zeneszám minden kottája: gitár, szólógitár, basszusgitár, ének, zongora, dob stb. megtalálható az oldalon, de mindegyik egy külön bejegyzésben. Ha egy másik hangszer gitártabos kottáját keresed, akkor az oldal alján vagy a keresőben megtalálod. Sokszor a zenekar tagjának a neve lesz a kotta kategóriája.)

        


C|-35---35---35------------------35---35---|-35------------------35---35---35--------|
C|----------------35---35---35-------------|------35---35---35------------------35---|
C|-----------------------------------------|-----------------------------------------|
C|-----------------------------------------|-----------------------------------------|
C|-----------------------------------------|-----------------------------------------|
C|-----------------------------------------|-----------------------------------------|


C|-----------35---35---35------------------|---------|--------------------------------------------------------------|
C|-35---35------------------35---35---36---|---------|-36--36--36--36--36--36--36--36--36--36--36--36--36--36--49---|
C|-----------------------------------------|-%-------|--------------------------------------------------------------|
C|-----------------------------------------|-%-------|--------------------------------------------------------------|
C|-----------------------------------------|---------|--------------------------------------------------------------|
C|-----------------------------------------|---------|--------------------------------------------------------------|


C|-----------------------------36----------------------------------|-----------------------------------------------------------------|
C|-36------36--35--35--35------36--------------35--35--36--35--35--|-35--35--35--36--36--36------38--35--36--35--36--35--36--35--49--|
C|-----38------38----------%---35--%---32--32----------------------|-------------------------%---------------------------------------|
C|-------------------------%---35--%-------------------------------|-------------------------%---------------------------------------|
C|---------------------40------35----------40----------------------|-----------------40------------------40--------------------------|
C|-----------------------------36----------------------------------|-----------------------------------------------------------------|


C|-----------------------------------------------------------------|-----------------------------------------------------------------|
C|-35--36--38--35--36--36--38--35--36--36--35--35--38--36--53--49--|-35--35--36--36--36--35--35--36--36--38--36--38--35--43--35--35--|
C|-----------------------------------------------------------------|-------------------------------------------------35--------------|
C|-----------------------------------------------------------------|-------------------------------------------------35--------------|
C|-----40----------------------40------------------------------40--|-40--------------------------48------------------35----------40--|
C|-----------------------------------------------------------------|-----------------------------------------------------------------|


C|-----------------------------------------------------------------|-----------------------------------------------------------------|
C|-35--34--34--35--35--35--35--36--36--39--38--36--35--38--36--35--|-35--35--35--35--35--36--36--36--36--36--36--35--35--35--36--49--|
C|-----------------------------------------------------------------|-----------------------------------------------------------------|
C|-----------------------------------------------------------------|-----------------------------------------------------------------|
C|---------40--------------------------48------------------40------|-----------------40----------------------40----------40----------|
C|-----------------------------------------------------------------|-----------------------------------------------------------------|


C|-40------|---------|---------|---------|---------|
C|-40------|---------|---------|---------|---------|
C|-49------|-%-------|-%-------|-%-------|-%-------|
C|---------|-%-------|-%-------|-%-------|-%-------|
C|---------|---------|---------|---------|---------|
C|-40------|---------|---------|---------|---------|

    

Nézd meg a videót és ismerd meg a leggyorsabb utat, hogyan tanulhatod meg kedvenc számaid gitáron!