Hogyan játszd el gitáron a Unknown Artist – Life of dreams dalt?

Unknown Artist Life of dreams – GITÁR PRO TAB, KOTTA, AKKORDOK

Kotta típusa: Bass

(Általában egy zeneszám minden kottája: gitár, szólógitár, basszusgitár, ének, zongora, dob stb. megtalálható az oldalon, de mindegyik egy külön bejegyzésben. Ha egy másik hangszer gitártabos kottáját keresed, akkor az oldal alján vagy a keresőben megtalálod. Sokszor a zenekar tagjának a neve lesz a kotta kategóriája.)

        


E|------------------------------------|---------------------------------|------------------------------------|
B|------------------------------------|---------------------------------|------------------------------------|
G|------------------------------------|---------------------------------|------------------------------------|
D|-----------------7------------------|-5-------------------------------|-----------------7------------------|
A|-------7-----5-------5----3-----3---|-------3-----3---2-----2---------|-------7-----5-------5----3-----3---|
E|-0----------------------------------|---------------------------5-----|-0----------------------------------|


E|---------------------------------|------------------------------------|---------------------------------|
B|---------------------------------|------------------------------------|---------------------------------|
G|---------------------------------|------------------------------------|---------------------------------|
D|-5-------------------------------|-----------------7------------------|-5-------------------------------|
A|-------3-----3---2-----2---------|-------7-----5-------5----3-----3---|-------3-----3---2-----2---------|
E|---------------------------5-----|-0----------------------------------|---------------------------5-----|


E|------------------------------------|---------------------------------|------------------------------------|
B|------------------------------------|---------------------------------|------------------------------------|
G|------------------------------------|---------------------------------|------------------------------------|
D|-----------------7------------------|-5-------------------------------|-----------------7------------------|
A|-------7-----5-------5----3-----3---|-------3-----3---2-----2---------|-------7-----5-------5----3-----3---|
E|-0----------------------------------|---------------------------5-----|-0----------------------------------|


E|---------------------------------|------------------------------------|---------------------------------|
B|---------------------------------|------------------------------------|---------------------------------|
G|---------------------------------|------------------------------------|---------------------------------|
D|-5-------------------------------|-----------------7------------------|-5-------------------------------|
A|-------3-----3---2-----2---------|-------7-----5-------5----3-----3---|-------3-----3---2-----2---------|
E|---------------------------5-----|-0----------------------------------|---------------------------5-----|


E|------------------------------------|---------------------------------|------------------------------------|
B|------------------------------------|---------------------------------|------------------------------------|
G|------------------------------------|---------------------------------|------------------------------------|
D|-----------------7------------------|-5-------------------------------|-----------------7------------------|
A|-------7-----5-------5----3-----3---|-------3-----3---2-----2---------|-------7-----5-------5----3-----3---|
E|-0----------------------------------|---------------------------5-----|-0----------------------------------|


E|---------------------------------|------------------------------------|---------------------------------|
B|---------------------------------|------------------------------------|---------------------------------|
G|---------------------------------|------------------------------------|---------------------------------|
D|-5-------------------------------|-----------------7------------------|-5-------------------------------|
A|-------3-----3---2-----2---------|-------7-----5-------5----3-----3---|-------3-----3---2-----2---------|
E|---------------------------5-----|-0----------------------------------|---------------------------5-----|


E|------------------------------------|---------------------------------|------------------------------------|
B|------------------------------------|---------------------------------|------------------------------------|
G|------------------------------------|---------------------------------|------------------------------------|
D|-----------------7------------------|-5-------------------------------|-----------------7------------------|
A|-------7-----5-------5----3-----3---|-------3-----3---2-----2---------|-------7-----5-------5----3-----3---|
E|-0----------------------------------|---------------------------5-----|-0----------------------------------|


E|---------------------------------|------------------------------------|---------------------------------|
B|---------------------------------|------------------------------------|---------------------------------|
G|---------------------------------|------------------------------------|---------------------------------|
D|-5-------------------------------|-----------------7------------------|-5-------------------------------|
A|-------3-----3---2-----2---------|-------7-----5-------5----3-----3---|-------3-----3---2-----2---------|
E|---------------------------5-----|-0----------------------------------|---------------------------5-----|


E|------------------------------------|---------------------------------|------------------------------------|
B|------------------------------------|---------------------------------|------------------------------------|
G|------------------------------------|---------------------------------|------------------------------------|
D|-----------------7------------------|-5-------------------------------|-----------------7------------------|
A|-------7-----5-------5----3-----3---|-------3-----3---2-----2---------|-------7-----5-------5----3-----3---|
E|-0----------------------------------|---------------------------5-----|-0----------------------------------|


E|---------------------------------|------------------------------------|---------------------------------|
B|---------------------------------|------------------------------------|---------------------------------|
G|---------------------------------|------------------------------------|---------------------------------|
D|-5-------------------------------|-----------------7------------------|-5-------------------------------|
A|-------3-----3---2-----2---------|-------7-----5-------5----3-----3---|-------3-----3---2-----2---------|
E|---------------------------5-----|-0----------------------------------|---------------------------5-----|


E|------------------------------------|---------------------------------|-------------------------|
B|------------------------------------|---------------------------------|-------------------------|
G|------------------------------------|---------------------------------|-------------------------|
D|-----------------7------------------|-5-------------------------------|-------------------------|
A|-------7-----5-------5----3-----3---|-------3-----3---2-----2---------|------7------5-----5-----|
E|-0----------------------------------|---------------------------5-----|-0-----------------------|


E|-------------------------------------------------|-------------------------|-------------------------------------------------|
B|-------------------------------------------------|-------------------------|-------------------------------------------------|
G|-------------------------------------------------|-------------------------|-------------------------------------------------|
D|-------------------------------------------------|-------------------------|-------------------------------------------------|
A|-3----3---3---3----3---3---2----0----------------|------7------5-----5-----|-3----3---3---3----3---3---2----0----------------|
E|-------------------------------------3-----3--3--|-0-----------------------|-------------------------------------3-----3--3--|


E|-------------------------|-------------------------------------------------|-------------------------|
B|-------------------------|-------------------------------------------------|-------------------------|
G|-------------------------|-------------------------------------------------|-------------------------|
D|-------------------------|-------------------------------------------------|-------------------------|
A|------7------5-----5-----|-3----3---3---3----3---3---2----0----------------|------7------5-----5-----|
E|-0-----------------------|-------------------------------------3-----3--3--|-0-----------------------|


E|-------------------------------------------------|-------------------------|-------------------------------------------------|
B|-------------------------------------------------|-------------------------|-------------------------------------------------|
G|-------------------------------------------------|-------------------------|-------------------------------------------------|
D|-------------------------------------------------|-------------------------|-------------------------------------------------|
A|-3----3---3---3----3---3---2----0----------------|------7------5-----5-----|-3----3---3---3----3---3---2----0----------------|
E|-------------------------------------3-----3--3--|-0-----------------------|-------------------------------------3-----3--3--|


E|-------------------------|-------------------------------------------------|------------------------------------|
B|-------------------------|-------------------------------------------------|------------------------------------|
G|-------------------------|-------------------------------------------------|------------------------------------|
D|-------------------------|-------------------------------------------------|-----------------7------------------|
A|------7------5-----5-----|-3----3---3---3----3---3---2----0----------------|-------7-----5-------5----3-----3---|
E|-0-----------------------|-------------------------------------3-----3--3--|-0----------------------------------|


E|---------------------------------|------------------------------------|---------------------------------|
B|---------------------------------|------------------------------------|---------------------------------|
G|---------------------------------|------------------------------------|---------------------------------|
D|-5-------------------------------|-----------------7------------------|-5-------------------------------|
A|-------3-----3---2-----2---------|-------7-----5-------5----3-----3---|-------3-----3---2-----2---------|
E|---------------------------5-----|-0----------------------------------|---------------------------5-----|


E|------------------------------------|---------------------------------|------------------------------------|
B|------------------------------------|---------------------------------|------------------------------------|
G|------------------------------------|---------------------------------|------------------------------------|
D|-----------------7------------------|-5-------------------------------|-----------------7------------------|
A|-------7-----5-------5----3-----3---|-------3-----3---2-----2---------|-------7-----5-------5----3-----3---|
E|-0----------------------------------|---------------------------5-----|-0----------------------------------|


E|---------------------------------|------------------------------------|---------------------------------|
B|---------------------------------|------------------------------------|---------------------------------|
G|---------------------------------|------------------------------------|---------------------------------|
D|-5-------------------------------|-----------------7------------------|-5-------------------------------|
A|-------3-----3---2-----2---------|-------7-----5-------5----3-----3---|-------3-----3---2-----2---------|
E|---------------------------5-----|-0----------------------------------|---------------------------5-----|


E|------------------------------------|---------------------------------|------------------------------------|
B|------------------------------------|---------------------------------|------------------------------------|
G|------------------------------------|---------------------------------|------------------------------------|
D|-----------------7------------------|-5-------------------------------|-----------------7------------------|
A|-------7-----5-------5----3-----3---|-------3-----3---2-----2---------|-------7-----5-------5----3-----3---|
E|-0----------------------------------|---------------------------5-----|-0----------------------------------|


E|---------------------------------|------------------------------------|---------------------------------|
B|---------------------------------|------------------------------------|---------------------------------|
G|---------------------------------|------------------------------------|---------------------------------|
D|-5-------------------------------|-----------------7------------------|-5-------------------------------|
A|-------3-----3---2-----2---------|-------7-----5-------5----3-----3---|-------3-----3---2-----2---------|
E|---------------------------5-----|-0----------------------------------|---------------------------5-----|


E|------------------------------------|---------------------------------|------------------------------------|
B|------------------------------------|---------------------------------|------------------------------------|
G|------------------------------------|---------------------------------|------------------------------------|
D|-----------------7------------------|-5-------------------------------|-----------------7------------------|
A|-------7-----5-------5----3-----3---|-------3-----3---2-----2---------|-------7-----5-------5----3-----3---|
E|-0----------------------------------|---------------------------5-----|-0----------------------------------|


E|---------------------------------|-------------------------|-------------------------------------------------|
B|---------------------------------|-------------------------|-------------------------------------------------|
G|---------------------------------|-------------------------|-------------------------------------------------|
D|-5-------------------------------|-------------------------|-------------------------------------------------|
A|-------3-----3---2-----2---------|------7------5-----5-----|-3----3---3---3----3---3---2----0----------------|
E|---------------------------5-----|-0-----------------------|-------------------------------------3-----3--3--|


E|-------------------------|-------------------------------------------------|-------------------------|
B|-------------------------|-------------------------------------------------|-------------------------|
G|-------------------------|-------------------------------------------------|-------------------------|
D|-------------------------|-------------------------------------------------|-------------------------|
A|------7------5-----5-----|-3----3---3---3----3---3---2----0----------------|------7------5-----5-----|
E|-0-----------------------|-------------------------------------3-----3--3--|-0-----------------------|


E|-------------------------------------------------|-------------------------|-------------------------------------------------|
B|-------------------------------------------------|-------------------------|-------------------------------------------------|
G|-------------------------------------------------|-------------------------|-------------------------------------------------|
D|-------------------------------------------------|-------------------------|-------------------------------------------------|
A|-3----3---3---3----3---3---2----0----------------|------7------5-----5-----|-3----3---3---3----3---3---2----0----------------|
E|-------------------------------------3-----3--3--|-0-----------------------|-------------------------------------3-----3--3--|


E|-------------------------|-------------------------------------------------|-------------------------|
B|-------------------------|-------------------------------------------------|-------------------------|
G|-------------------------|-------------------------------------------------|-------------------------|
D|-------------------------|-------------------------------------------------|-------------------------|
A|------7------5-----5-----|-3----3---3---3----3---3---2----0----------------|------7------5-----5-----|
E|-0-----------------------|-------------------------------------3-----3--3--|-0-----------------------|


E|-------------------------------------------------|-------------------------------------------------------------|
B|-------------------------------------------------|-------------------------------------------------------------|
G|-------------------------------------------------|-------------------------------------------------------------|
D|-------------------------------------------------|-------------------------------------------------------------|
A|-3----3---3---3----3---3---2----0----------------|-7----7----7----7----7----7----7----7----7----7----7----7----|
E|-------------------------------------3-----3--3--|-------------------------------------------------------------|


E|-------------------------------------------------------------|-------------------------------------------------------------|
B|-------------------------------------------------------------|-------------------------------------------------------------|
G|-7----7----7----5----5----5----4----4----4----2----2----2----|-------------------------------------------------------------|
D|-------------------------------------------------------------|-------------------------------------------------------------|
A|-------------------------------------------------------------|-7----7----7----7----7----7----7----7----7----7----7----7----|
E|-------------------------------------------------------------|-------------------------------------------------------------|


E|-------------------------------------------------------------|-------------------------------------------------------------|
B|-------------------------------------------------------------|-------------------------------------------------------------|
G|-7----7----7----5----5----5----4----4----4----2----2----2----|-------------------------------------------------------------|
D|-------------------------------------------------------------|-------------------------------------------------------------|
A|-------------------------------------------------------------|-5----5----5----5----5----5----3----3----3----2----2----2----|
E|-------------------------------------------------------------|-------------------------------------------------------------|


E|-------------------------------------------------------------|-------------------------------------------------------------|
B|-------------------------------------------------------------|-------------------------------------------------------------|
G|-------------------------------------------------------------|-------------------------------------------------------------|
D|-------------------------------------------------------------|-------------------------------------------------------------|
A|-0----0----0----0----0----0----------------------------------|-7----7----7----7----7----7----7----7----7----7----7----7----|
E|-------------------------------3----3----3----0----0----0----|-------------------------------------------------------------|


E|-------------------------------------------------------------|-------------------------------------------------------------|
B|-------------------------------------------------------------|-------------------------------------------------------------|
G|-7----7----7----5----5----5----4----4----4----2----2----2----|-------------------------------------------------------------|
D|-------------------------------------------------------------|-------------------------------------------------------------|
A|-------------------------------------------------------------|-9----9----9----9----9----9----9----9----9----9----9----9----|
E|-------------------------------------------------------------|-------------------------------------------------------------|


E|-------------------------------------------------------------|-------------------------------------------------------------|
B|-------------------------------------------------------------|-------------------------------------------------------------|
G|-9----9----9----7----7----7----6----6----6----4----4----4----|-------------------------------------------------------------|
D|-------------------------------------------------------------|-------------------------------------------------------------|
A|-------------------------------------------------------------|-9----9----9----9----9----9----9----9----9----9----9----9----|
E|-------------------------------------------------------------|-------------------------------------------------------------|


E|-------------------------------------------------------------|-------------------------------------------------------------|
B|-------------------------------------------------------------|-------------------------------------------------------------|
G|-9----9----9----7----7----7----6----6----6----4----4----4----|-------------------------------------------------------------|
D|-------------------------------------------------------------|-------------------------------------------------------------|
A|-------------------------------------------------------------|-7----7----7----7----7----7----5----5----5----4----4----4----|
E|-------------------------------------------------------------|-------------------------------------------------------------|


E|-------------------------------------------------------------|-------------------------------------------------------------|
B|-------------------------------------------------------------|-------------------------------------------------------------|
G|-------------------------------------------------------------|-------------------------------------------------------------|
D|-------------------------------------------------------------|-------------------------------------------------------------|
A|-2----2----2----2----2----2----------------------------------|-9----9----9----9----9----9----9----9----9----9----9----9----|
E|-------------------------------5----5----5----2----2----2----|-------------------------------------------------------------|


E|-------------------------------------------------------------|-------------------------------------------------------------|
B|-------------------------------------------------------------|-------------------------------------------------------------|
G|-9----9----9----7----7----7----6----6----6----4----4----4----|-------------------------------------------------------------|
D|-------------------------------------------------------------|-------------------------------------------------------------|
A|-------------------------------------------------------------|-7----7----7----7----7----7----7----7----7----7----7----7----|
E|-------------------------------------------------------------|-------------------------------------------------------------|


E|-------------------------------------------------------------|-------------------------------------------------------------|
B|-------------------------------------------------------------|-------------------------------------------------------------|
G|-7----7----7----5----5----5----4----4----4----2----2----2----|-------------------------------------------------------------|
D|-------------------------------------------------------------|-------------------------------------------------------------|
A|-------------------------------------------------------------|-7----7----7----7----7----7----7----7----7----7----7----7----|
E|-------------------------------------------------------------|-------------------------------------------------------------|


E|-------------------------------------------------------------|-------------------------------------------------------------|
B|-------------------------------------------------------------|-------------------------------------------------------------|
G|-7----7----7----5----5----5----4----4----4----2----2----2----|-------------------------------------------------------------|
D|-------------------------------------------------------------|-------------------------------------------------------------|
A|-------------------------------------------------------------|-5----5----5----5----5----5----3----3----3----2----2----2----|
E|-------------------------------------------------------------|-------------------------------------------------------------|


E|-------------------------------------------------------------|-------------------------------------------------------------|
B|-------------------------------------------------------------|-------------------------------------------------------------|
G|-------------------------------------------------------------|-------------------------------------------------------------|
D|-------------------------------------------------------------|-------------------------------------------------------------|
A|-0----0----0----0----0----0----------------------------------|-7----7----7----7----7----7----7----7----7----7----7----7----|
E|-------------------------------3----3----3----0----0----0----|-------------------------------------------------------------|


E|-------------------------------------------------------------|-------------------------------------------------------------|
B|-------------------------------------------------------------|-------------------------------------------------------------|
G|-7----7----7----5----5----5----4----4----4----2----2----2----|-------------------------------------------------------------|
D|-------------------------------------------------------------|-------------------------------------------------------------|
A|-------------------------------------------------------------|-7----7----7----7----7----7----7----7----7----7----7----7----|
E|-------------------------------------------------------------|-------------------------------------------------------------|


E|-------------------------------------------------------------|-------------------------------------------------------------|
B|-------------------------------------------------------------|-------------------------------------------------------------|
G|-7----7----7----5----5----5----4----4----4----2----2----2----|-------------------------------------------------------------|
D|-------------------------------------------------------------|-------------------------------------------------------------|
A|-------------------------------------------------------------|-7----7----7----7----7----7----7----7----7----7----7----7----|
E|-------------------------------------------------------------|-------------------------------------------------------------|


E|-------------------------------------------------------------|-------------------------------------------------------------|
B|-------------------------------------------------------------|-------------------------------------------------------------|
G|-7----7----7----5----5----5----4----4----4----2----2----2----|-------------------------------------------------------------|
D|-------------------------------------------------------------|-------------------------------------------------------------|
A|-------------------------------------------------------------|-5----5----5----5----5----5----3----3----3----2----2----2----|
E|-------------------------------------------------------------|-------------------------------------------------------------|


E|-------------------------------------------------------------|-------------------------------------------------------------|
B|-------------------------------------------------------------|-------------------------------------------------------------|
G|-------------------------------------------------------------|-------------------------------------------------------------|
D|-------------------------------------------------------------|-------------------------------------------------------------|
A|-0----0----0----0----0----0----------------------------------|-7----7----7----7----7----7----7----7----7----7----7----7----|
E|-------------------------------3----3----3----0----0----0----|-------------------------------------------------------------|


E|-------------------------------------------------------------|-------------------------------------------------------------|
B|-------------------------------------------------------------|-------------------------------------------------------------|
G|-7----7----7----5----5----5----4----4----4----2----2----2----|-------------------------------------------------------------|
D|-------------------------------------------------------------|-------------------------------------------------------------|
A|-------------------------------------------------------------|-9----9----9----9----9----9----9----9----9----9----9----9----|
E|-------------------------------------------------------------|-------------------------------------------------------------|


E|-------------------------------------------------------------|-------------------------------------------------------------|
B|-------------------------------------------------------------|-------------------------------------------------------------|
G|-9----9----9----7----7----7----6----6----6----4----4----4----|-------------------------------------------------------------|
D|-------------------------------------------------------------|-------------------------------------------------------------|
A|-------------------------------------------------------------|-9----9----9----9----9----9----9----9----9----9----9----9----|
E|-------------------------------------------------------------|-------------------------------------------------------------|


E|-------------------------------------------------------------|-------------------------------------------------------------|
B|-------------------------------------------------------------|-------------------------------------------------------------|
G|-9----9----9----7----7----7----6----6----6----4----4----4----|-------------------------------------------------------------|
D|-------------------------------------------------------------|-------------------------------------------------------------|
A|-------------------------------------------------------------|-7----7----7----7----7----7----5----5----5----4----4----4----|
E|-------------------------------------------------------------|-------------------------------------------------------------|


E|-------------------------------------------------------------|-------------------------------------------------------------|
B|-------------------------------------------------------------|-------------------------------------------------------------|
G|-------------------------------------------------------------|-------------------------------------------------------------|
D|-------------------------------------------------------------|-------------------------------------------------------------|
A|-2----2----2----2----2----2----------------------------------|-9----9----9----9----9----9----9----9----9----9----9----9----|
E|-------------------------------5----5----5----2----2----2----|-------------------------------------------------------------|


E|-------------------------------------------------------------|-------------------------------------------------------------|
B|-------------------------------------------------------------|-------------------------------------------------------------|
G|-9----9----9----7----7----7----6----6----6----4----4----4----|-------------------------------------------------------------|
D|-------------------------------------------------------------|-------------------------------------------------------------|
A|-------------------------------------------------------------|-9----9----9----9----9----9----9----9----9----9----9----9----|
E|-------------------------------------------------------------|-------------------------------------------------------------|


E|-------------------------------------------------------------|-------------------------------------------------------------|
B|-------------------------------------------------------------|-------------------------------------------------------------|
G|-9----9----9----7----7----7----6----6----6----4----4----4----|-------------------------------------------------------------|
D|-------------------------------------------------------------|-------------------------------------------------------------|
A|-------------------------------------------------------------|-9----9----9----9----9----9----9----9----9----9----9----9----|
E|-------------------------------------------------------------|-------------------------------------------------------------|


E|-------------------------------------------------------------|-------------------------------------------------------------|
B|-------------------------------------------------------------|-------------------------------------------------------------|
G|-9----9----9----7----7----7----6----6----6----4----4----4----|-------------------------------------------------------------|
D|-------------------------------------------------------------|-------------------------------------------------------------|
A|-------------------------------------------------------------|-7----7----7----7----7----7----5----5----5----4----4----4----|
E|-------------------------------------------------------------|-------------------------------------------------------------|


E|-------------------------------------------------------------|-------------------------------------------------------------|
B|-------------------------------------------------------------|-------------------------------------------------------------|
G|-------------------------------------------------------------|-------------------------------------------------------------|
D|-------------------------------------------------------------|-------------------------------------------------------------|
A|-2----2----2----2----2----2----------------------------------|-9----9----9----9----9----9----9----9----9----9----9----9----|
E|-------------------------------5----5----5----2----2----2----|-------------------------------------------------------------|


E|-------------------------------------------------------------|---------|---------|
B|-------------------------------------------------------------|---------|---------|
G|-9----9----9----7----7----7----6----6----6----4----4----4----|-%-------|-%-------|
D|-------------------------------------------------------------|-%-------|-%-------|
A|-------------------------------------------------------------|---------|---------|
E|-------------------------------------------------------------|---------|---------|


E|---------|---------|------------------------------------|---------------------------------|
B|---------|---------|------------------------------------|---------------------------------|
G|-%-------|-%-------|------------------------------------|---------------------------------|
D|-%-------|-%-------|-----------------7------------------|-5-------------------------------|
A|---------|---------|-------7-----5-------5----3-----3---|-------3-----3---2-----2---------|
E|---------|---------|-0----------------------------------|---------------------------5-----|


E|------------------------------------|---------------------------------|------------------------------------|
B|------------------------------------|---------------------------------|------------------------------------|
G|------------------------------------|---------------------------------|------------------------------------|
D|-----------------7------------------|-5-------------------------------|-----------------7------------------|
A|-------7-----5-------5----3-----3---|-------3-----3---2-----2---------|-------7-----5-------5----3-----3---|
E|-0----------------------------------|---------------------------5-----|-0----------------------------------|


E|---------------------------------|------------------------------------|---------------------------------|
B|---------------------------------|------------------------------------|---------------------------------|
G|---------------------------------|------------------------------------|---------------------------------|
D|-5-------------------------------|-----------------7------------------|-5-------------------------------|
A|-------3-----3---2-----2---------|-------7-----5-------5----3-----3---|-------3-----3---2-----2---------|
E|---------------------------5-----|-0----------------------------------|---------------------------5-----|


E|------------------------------------|---------------------------------|------------------------------------|
B|------------------------------------|---------------------------------|------------------------------------|
G|------------------------------------|---------------------------------|------------------------------------|
D|-----------------7------------------|-5-------------------------------|-----------------7------------------|
A|-------7-----5-------5----3-----3---|-------3-----3---2-----2---------|-------7-----5-------5----3-----3---|
E|-0----------------------------------|---------------------------5-----|-0----------------------------------|


E|---------------------------------|------------------------------------|---------------------------------|
B|---------------------------------|------------------------------------|---------------------------------|
G|---------------------------------|------------------------------------|---------------------------------|
D|-5-------------------------------|-----------------7------------------|-5-------------------------------|
A|-------3-----3---2-----2---------|-------7-----5-------5----3-----3---|-------3-----3---2-----2---------|
E|---------------------------5-----|-0----------------------------------|---------------------------5-----|


E|------------------------------------|---------------------------------|------------------------------------|
B|------------------------------------|---------------------------------|------------------------------------|
G|------------------------------------|---------------------------------|------------------------------------|
D|-----------------7------------------|-5-------------------------------|-----------------7------------------|
A|-------7-----5-------5----3-----3---|-------3-----3---2-----2---------|-------7-----5-------5----3-----3---|
E|-0----------------------------------|---------------------------5-----|-0----------------------------------|


E|---------------------------------|------------------------------------|---------------------------------|
B|---------------------------------|------------------------------------|---------------------------------|
G|---------------------------------|------------------------------------|---------------------------------|
D|-5-------------------------------|-----------------7------------------|-5-------------------------------|
A|-------3-----3---2-----2---------|-------7-----5-------5----3-----3---|-------3-----3---2-----2---------|
E|---------------------------5-----|-0----------------------------------|---------------------------5-----|


E|---------|---------|---------|---------|
B|---------|---------|---------|---------|
G|-%-------|-%-------|-%-------|-%-------|
D|-%-------|-%-------|-%-------|-%-------|
A|---------|---------|---------|---------|
E|---------|---------|---------|---------|

    

Nézd meg a videót és ismerd meg a leggyorsabb utat, hogyan tanulhatod meg kedvenc számaid gitáron!