Hogyan játszd el gitáron a Unknown Artist – Lovin Dreams dalt?

Unknown Artist Lovin Dreams – GITÁR PRO TAB, KOTTA, AKKORDOK

Kotta típusa: Bass

(Általában egy zeneszám minden kottája: gitár, szólógitár, basszusgitár, ének, zongora, dob stb. megtalálható az oldalon, de mindegyik egy külön bejegyzésben. Ha egy másik hangszer gitártabos kottáját keresed, akkor az oldal alján vagy a keresőben megtalálod. Sokszor a zenekar tagjának a neve lesz a kotta kategóriája.)

        


E|---------|---------|---------|---------|--------------------|--------------------|
B|---------|---------|---------|---------|--------------------|--------------------|
G|-%-------|-%-------|-%-------|-%-------|--------------------|--------------------|
D|-%-------|-%-------|-%-------|-%-------|--------------------|--------------------|
A|---------|---------|---------|---------|-7------7-----7-----|-3------3-----3-----|
E|---------|---------|---------|---------|--------------------|--------------------|


E|--------------------|--------------------|----------------------------------------|
B|--------------------|--------------------|----------------------------------------|
G|--------------------|--------------------|------%---------%--------%--------------|
D|--------------------|-5------5-----5-----|------%---------%--------%--------------|
A|-7------7-----7-----|--------------------|-7---------7--------7--------7----7-----|
E|--------------------|--------------------|----------------------------------------|


E|-------------------------------------|----------------------------------------|-------------------------------------|
B|-------------------------------------|----------------------------------------|-------------------------------------|
G|------%---------%--------------------|------%---------%--------%--------------|------%---------%--------------------|
D|------%---------%--------------------|------%---------%--------%--------------|-5----%----5----%---5-----5----5-----|
A|-3---------3--------3-----3----3-----|-7---------7--------7--------7----7-----|-------------------------------------|
E|-------------------------------------|----------------------------------------|-------------------------------------|


E|----------------------------------------|-------------------------------------|----------------------------------------|
B|----------------------------------------|-------------------------------------|----------------------------------------|
G|------%---------%--------%--------------|------%---------%--------------------|------%---------%--------%--------------|
D|------%---------%--------%--------------|------%---------%--------------------|------%---------%--------%--------------|
A|-7---------7--------7--------7----7-----|-3---------3--------3-----3----3-----|-7---------7--------7--------7----7-----|
E|----------------------------------------|-------------------------------------|----------------------------------------|


E|-------------------------------------|----------------------------------------|-------------------------------------|
B|-------------------------------------|----------------------------------------|-------------------------------------|
G|------%---------%--------------------|------%---------%--------%--------------|------%---------%--------------------|
D|-5----%----5----%---5-----5----5-----|------%---------%--------%--------------|------%---------%--------------------|
A|-------------------------------------|-7---------7--------7--------7----7-----|-3---------3--------3-----3----3-----|
E|-------------------------------------|----------------------------------------|-------------------------------------|


E|----------------------------------------|-------------------------------------|-----------------------------------------|
B|----------------------------------------|-------------------------------------|-----------------------------------------|
G|------%---------%--------%--------------|------%---------%--------------------|-----------------------------------------|
D|------%---------%--------%--------------|-5----%----5----%---5-----5----5-----|-----------------------------------------|
A|-7---------7--------7--------7----7-----|-------------------------------------|-----------------------------------------|
E|----------------------------------------|-------------------------------------|-5----5----5----5----5----5----8----8----|


E|-----------------------------------------|-----------------------------------------|
B|-----------------------------------------|-----------------------------------------|
G|-----------------------------------------|-----------------------------------------|
D|-----------------------------------------|-----------------------------------------|
A|-----------------------------------------|-----------------------------------------|
E|-0----0----0----0----0----0----3----3----|-5----5----5----5----5----5----8----8----|


E|-------------------------------------------|-----------------------------------------|
B|-------------------------------------------|-----------------------------------------|
G|------%------------%-----------------------|-----------------------------------------|
D|------%------------%-----------------------|-----------------------------------------|
A|-5--------5---5------------7----7----7-----|-----------------------------------------|
E|-----------------------0-------------------|-5----5----5----5----5----5----8----8----|


E|-----------------------------------------|-----------------------------------------|
B|-----------------------------------------|-----------------------------------------|
G|-----------------------------------------|-----------------------------------------|
D|-----------------------------------------|-----------------------------------------|
A|-----------------------------------------|-----------------------------------------|
E|-0----0----0----0----0----0----3----3----|-5----5----5----5----5----5----8----8----|


E|-------------------------------------------|----------------------------------------|
B|-------------------------------------------|----------------------------------------|
G|------%------------%-----------------------|------%---------%--------%--------------|
D|------%------------%-----------------------|------%---------%--------%--------------|
A|-5--------5---5------------7----7----7-----|-7---------7--------7--------7----7-----|
E|-----------------------0-------------------|----------------------------------------|


E|-------------------------------------|----------------------------------------|-------------------------------------|
B|-------------------------------------|----------------------------------------|-------------------------------------|
G|------%---------%--------------------|------%---------%--------%--------------|------%---------%--------------------|
D|------%---------%--------------------|------%---------%--------%--------------|-5----%----5----%---5-----5----5-----|
A|-3---------3--------3-----3----3-----|-7---------7--------7--------7----7-----|-------------------------------------|
E|-------------------------------------|----------------------------------------|-------------------------------------|


E|----------------------------------------|-------------------------------------|----------------------------------------|
B|----------------------------------------|-------------------------------------|----------------------------------------|
G|------%---------%--------%--------------|------%---------%--------------------|------%---------%--------%--------------|
D|------%---------%--------%--------------|------%---------%--------------------|------%---------%--------%--------------|
A|-7---------7--------7--------7----7-----|-3---------3--------3-----3----3-----|-7---------7--------7--------7----7-----|
E|----------------------------------------|-------------------------------------|----------------------------------------|


E|-------------------------------------|----------------------------------------|-------------------------------------|
B|-------------------------------------|----------------------------------------|-------------------------------------|
G|------%---------%--------------------|------%---------%--------%--------------|------%---------%--------------------|
D|-5----%----5----%---5-----5----5-----|------%---------%--------%--------------|------%---------%--------------------|
A|-------------------------------------|-7---------7--------7--------7----7-----|-3---------3--------3-----3----3-----|
E|-------------------------------------|----------------------------------------|-------------------------------------|


E|----------------------------------------|-------------------------------------|----------------------------------------|
B|----------------------------------------|-------------------------------------|----------------------------------------|
G|------%---------%--------%--------------|------%---------%--------------------|------%---------%--------%--------------|
D|------%---------%--------%--------------|-5----%----5----%---5-----5----5-----|------%---------%--------%--------------|
A|-7---------7--------7--------7----7-----|-------------------------------------|-7---------7--------7--------7----7-----|
E|----------------------------------------|-------------------------------------|----------------------------------------|


E|-------------------------------------|----------------------------------------|-------------------------------------|
B|-------------------------------------|----------------------------------------|-------------------------------------|
G|------%---------%--------------------|------%---------%--------%--------------|------%---------%--------------------|
D|------%---------%--------------------|------%---------%--------%--------------|-5----%----5----%---5-----5----5-----|
A|-3---------3--------3-----3----3-----|-7---------7--------7--------7----7-----|-------------------------------------|
E|-------------------------------------|----------------------------------------|-------------------------------------|


E|-----------------------------------------|-----------------------------------------|
B|-----------------------------------------|-----------------------------------------|
G|-----------------------------------------|-----------------------------------------|
D|-----------------------------------------|-----------------------------------------|
A|-----------------------------------------|-----------------------------------------|
E|-5----5----5----5----5----5----8----8----|-0----0----0----0----0----0----3----3----|


E|-----------------------------------------|-------------------------------------------|
B|-----------------------------------------|-------------------------------------------|
G|-----------------------------------------|------%------------%-----------------------|
D|-----------------------------------------|------%------------%-----------------------|
A|-----------------------------------------|-5--------5---5------------7----7----7-----|
E|-5----5----5----5----5----5----8----8----|-----------------------0-------------------|


E|-----------------------------------------|-----------------------------------------|
B|-----------------------------------------|-----------------------------------------|
G|-----------------------------------------|-----------------------------------------|
D|-----------------------------------------|-----------------------------------------|
A|-----------------------------------------|-----------------------------------------|
E|-5----5----5----5----5----5----8----8----|-0----0----0----0----0----0----3----3----|


E|-----------------------------------------|-------------------------------------------|
B|-----------------------------------------|-------------------------------------------|
G|-----------------------------------------|------%------------%-----------------------|
D|-----------------------------------------|------%------------%-----------------------|
A|-----------------------------------------|-5--------5---5------------7----7----7-----|
E|-5----5----5----5----5----5----8----8----|-----------------------0-------------------|


E|-----------------------------|-----------------------|-----------------------------|
B|-----------------------------|-----------------------|-----------------------------|
G|-----------------------------|-----------------------|-----------------------------|
D|-----------------------------|-----------------------|-----------------------------|
A|-3-----3----5-----5----2-----|-0------0---0---0------|-3-----3----5-----5----2-----|
E|-----------------------------|-----------------------|-----------------------------|


E|-----------------------|-----------------------------|-----------------------|-----------------------------|
B|-----------------------|-----------------------------|-----------------------|-----------------------------|
G|----------------2------|-----------------------------|-----------------------|-----------------------------|
D|-----------------------|-----------------------------|-----------------------|-----------------------------|
A|-0------0---0----------|-3-----3----5-----5----2-----|-0------0---0---0------|-3-----3----5-----5----2-----|
E|-----------------------|-----------------------------|-----------------------|-----------------------------|


E|-----------------------|-----------------------------------------------|----------------------------------------|
B|-----------------------|-----------------------------------------------|----------------------------------------|
G|----------------2------|------%--------%-------------%--------%--------|------%--------%-------------%----------|
D|-----------------------|------%--------%-------------%--------%--------|------%--------%-------------%----------|
A|-0------0---0----------|-2--------2--------2----5--------5--------5----|----------------------------------------|
E|-----------------------|-----------------------------------------------|-3--------3--------3----5---------5-----|


E|-----------------------------------------------|-------------------------------|-----------------------------------------------|
B|-----------------------------------------------|-------------------------------|-----------------------------------------------|
G|------%--------%-------------%--------%--------|------%--------%---------------|------%--------%-------------%--------%--------|
D|------%--------%-------------%--------%--------|------%--------%---------------|------%--------%-------------%--------%--------|
A|-2--------2--------2----5--------5--------5----|-------------------------------|-2--------2--------2----5--------5--------5----|
E|-----------------------------------------------|-3--------3--------3----2------|-----------------------------------------------|


E|----------------------------------------|-----------------------------------------------|
B|----------------------------------------|-----------------------------------------------|
G|------%--------%-------------%----------|------%--------%-------------%--------%--------|
D|------%--------%-------------%----------|------%--------%-------------%--------%--------|
A|----------------------------------------|-2--------2--------2----5--------5--------5----|
E|-3--------3--------3----5---------5-----|-----------------------------------------------|


E|-------------------------------|-----------------------------|-----------------------------|
B|-------------------------------|-----------------------------|-----------------------------|
G|------%--------%---------------|-----------------------------|-----------------------------|
D|------%--------%---------------|-----------------------------|-----------------------------|
A|-------------------------------|-5-----5----5----5------5----|-3-----X----X----1------X----|
E|-3--------3--------3----2------|-----------------------------|-----------------------------|


E|-----------------------------|-----------------------------|---------------------------------|
B|-----------------------------|-----------------------------|---------------------------------|
G|-----------------------------|-----------------------------|---------------------------------|
D|-----------------------------|-----------------------------|---------------------------------|
A|-5-----5----5----5------5----|-1-----X----X----0------X----|-3-----3----3----3-----3----3----|
E|-----------------------------|-----------------------------|---------------------------------|


E|---------------------------------|---------------------------------|---------------------------------|
B|---------------------------------|---------------------------------|---------------------------------|
G|---------------------------------|---------------------------------|---------------------------------|
D|---------------------------------|---------------------------------|---------------------------------|
A|---------------------------------|-1-----1----1----1-----1----1----|-0-----0----0----0-----0----0----|
E|-3-----3----3----3-----3----3----|---------------------------------|---------------------------------|


E|-----------------------------|-----------------------------|-----------------------------|
B|-----------------------------|-----------------------------|-----------------------------|
G|-----------------------------|-----------------------------|-----------------------------|
D|-----------------------------|-----------------------------|-----------------------------|
A|-5-----5----5----5------5----|-3-----X----X----1------X----|-5-----5----5----5------5----|
E|-----------------------------|-----------------------------|-----------------------------|


E|-----------------------------|---------------------------------|---------------------------------|
B|-----------------------------|---------------------------------|---------------------------------|
G|-----------------------------|---------------------------------|---------------------------------|
D|-----------------------------|---------------------------------|---------------------------------|
A|-1-----X----X----0------X----|-3-----3----3----3-----3----3----|---------------------------------|
E|-----------------------------|---------------------------------|-3-----3----3----3-----3----3----|


E|---------------------------------|------------------------|-----------------------------------------------|
B|---------------------------------|------------------------|-----------------------------------------------|
G|---------------------------------|------------------------|------%--------%-------------%--------%--------|
D|---------------------------------|------------------------|------%--------%-------------%--------%--------|
A|-1-----1----1----1-----1----1----|-0-----0----0----0------|-2--------2--------2----5--------5--------5----|
E|---------------------------------|------------------------|-----------------------------------------------|


E|----------------------------------------|-----------------------------------------------|
B|----------------------------------------|-----------------------------------------------|
G|------%--------%-------------%----------|------%--------%-------------%--------%--------|
D|------%--------%-------------%----------|------%--------%-------------%--------%--------|
A|----------------------------------------|-2--------2--------2----5--------5--------5----|
E|-3--------3--------3----5---------5-----|-----------------------------------------------|


E|-------------------------------|-----------------------------------------------|----------------------------------------|
B|-------------------------------|-----------------------------------------------|----------------------------------------|
G|------%--------%---------------|------%--------%-------------%--------%--------|------%--------%-------------%----------|
D|------%--------%---------------|------%--------%-------------%--------%--------|------%--------%-------------%----------|
A|-------------------------------|-2--------2--------2----5--------5--------5----|----------------------------------------|
E|-3--------3--------3----2------|-----------------------------------------------|-3--------3--------3----5---------5-----|


E|-----------------------------------------------|-------------------------------|----------------------------------------|
B|-----------------------------------------------|-------------------------------|----------------------------------------|
G|------%--------%-------------%--------%--------|------%--------%---------------|------%---------%--------%--------------|
D|------%--------%-------------%--------%--------|------%--------%---------------|------%---------%--------%--------------|
A|-2--------2--------2----5--------5--------5----|-------------------------------|-7---------7--------7--------7----7-----|
E|-----------------------------------------------|-3--------3--------3----2------|----------------------------------------|


E|-------------------------------------|----------------------------------------|-------------------------------------|
B|-------------------------------------|----------------------------------------|-------------------------------------|
G|------%---------%--------------------|------%---------%--------%--------------|------%---------%--------------------|
D|------%---------%--------------------|------%---------%--------%--------------|-5----%----5----%---5-----5----5-----|
A|-3---------3--------3-----3----3-----|-7---------7--------7--------7----7-----|-------------------------------------|
E|-------------------------------------|----------------------------------------|-------------------------------------|


E|----------------------------------------|-------------------------------------|----------------------------------------|
B|----------------------------------------|-------------------------------------|----------------------------------------|
G|------%---------%--------%--------------|------%---------%--------------------|------%---------%--------%--------------|
D|------%---------%--------%--------------|------%---------%--------------------|------%---------%--------%--------------|
A|-7---------7--------7--------7----7-----|-3---------3--------3-----3----3-----|-7---------7--------7--------7----7-----|
E|----------------------------------------|-------------------------------------|----------------------------------------|


E|-------------------------------------|-----------------------------|-----------------------|
B|-------------------------------------|-----------------------------|-----------------------|
G|------%---------%--------------------|-----------------------------|-----------------------|
D|-5----%----5----%---5-----5----5-----|-----------------------------|-----------------------|
A|-------------------------------------|-3-----3----5-----5----2-----|-0------0---0---0------|
E|-------------------------------------|-----------------------------|-----------------------|


E|-----------------------------|-----------------------|-----------------------------|
B|-----------------------------|-----------------------|-----------------------------|
G|-----------------------------|----------------2------|-----------------------------|
D|-----------------------------|-----------------------|-----------------------------|
A|-3-----3----5-----5----2-----|-0------0---0----------|-3-----3----5-----5----2-----|
E|-----------------------------|-----------------------|-----------------------------|


E|-----------------------|-----------------------------|-----------------------|-----------------------------------------------|
B|-----------------------|-----------------------------|-----------------------|-----------------------------------------------|
G|-----------------------|-----------------------------|----------------2------|------%--------%-------------%--------%--------|
D|-----------------------|-----------------------------|-----------------------|------%--------%-------------%--------%--------|
A|-0------0---0---0------|-3-----3----5-----5----2-----|-0------0---0----------|-2--------2--------2----5--------5--------5----|
E|-----------------------|-----------------------------|-----------------------|-----------------------------------------------|


E|----------------------------------------|-----------------------------------------------|
B|----------------------------------------|-----------------------------------------------|
G|------%--------%-------------%----------|------%--------%-------------%--------%--------|
D|------%--------%-------------%----------|------%--------%-------------%--------%--------|
A|----------------------------------------|-2--------2--------2----5--------5--------5----|
E|-3--------3--------3----5---------5-----|-----------------------------------------------|


E|-------------------------------|-----------------------------------------------|----------------------------------------|
B|-------------------------------|-----------------------------------------------|----------------------------------------|
G|------%--------%---------------|------%--------%-------------%--------%--------|------%--------%-------------%----------|
D|------%--------%---------------|------%--------%-------------%--------%--------|------%--------%-------------%----------|
A|-------------------------------|-2--------2--------2----5--------5--------5----|----------------------------------------|
E|-3--------3--------3----2------|-----------------------------------------------|-3--------3--------3----5---------5-----|


E|-----------------------------------------------|-------------------------------|-----------------------------|
B|-----------------------------------------------|-------------------------------|-----------------------------|
G|------%--------%-------------%--------%--------|------%--------%---------------|-----------------------------|
D|------%--------%-------------%--------%--------|------%--------%---------------|-----------------------------|
A|-2--------2--------2----5--------5--------5----|-------------------------------|-3-----3----5-----5----2-----|
E|-----------------------------------------------|-3--------3--------3----2------|-----------------------------|


E|-----------------------|-----------------------------|-----------------------|-----------------------------|
B|-----------------------|-----------------------------|-----------------------|-----------------------------|
G|-----------------------|-----------------------------|----------------2------|-----------------------------|
D|-----------------------|-----------------------------|-----------------------|-----------------------------|
A|-0------0---0---0------|-3-----3----5-----5----2-----|-0------0---0----------|-3-----3----5-----5----2-----|
E|-----------------------|-----------------------------|-----------------------|-----------------------------|


E|-----------------------|-----------------------------|-----------------------|---------|
B|-----------------------|-----------------------------|-----------------------|---------|
G|-----------------------|-----------------------------|----------------2------|---------|
D|-----------------------|-----------------------------|-----------------------|---------|
A|-0------0---0---0------|-3-----3----5-----5----2-----|-0------0---0----------|---------|
E|-----------------------|-----------------------------|-----------------------|-0-------|


E|---------|---------|---------|---------|---------|---------|---------|---------|---------|
B|---------|---------|---------|---------|---------|---------|---------|---------|---------|
G|---------|---------|---------|---------|---------|---------|---------|---------|---------|
D|---------|---------|---------|---------|---------|---------|---------|---------|---------|
A|---------|---------|---------|---------|---------|---------|---------|---------|---------|
E|-0-------|-0-------|-0-------|-0-------|-0-------|-0-------|-0-------|-0-------|-0-------|


E|---------|---------|---------|
B|---------|---------|---------|
G|---------|---------|-%-------|
D|---------|---------|-%-------|
A|---------|---------|---------|
E|-0-------|-0-------|---------|

    

Nézd meg a videót és ismerd meg a leggyorsabb utat, hogyan tanulhatod meg kedvenc számaid gitáron!