Hogyan játszd el gitáron a Unknown Artist – Lovin Dreams dalt?

Unknown Artist Lovin Dreams – GITÁR PRO TAB, KOTTA, AKKORDOK

Kotta típusa: Drums

(Általában egy zeneszám minden kottája: gitár, szólógitár, basszusgitár, ének, zongora, dob stb. megtalálható az oldalon, de mindegyik egy külön bejegyzésben. Ha egy másik hangszer gitártabos kottáját keresed, akkor az oldal alján vagy a keresőben megtalálod. Sokszor a zenekar tagjának a neve lesz a kotta kategóriája.)

        


C|---------|---------|---------|--------57---------------------|-57------------------------------|
C|---------|---------|---------|--------36----36--36---36--36--|-------42----42--------42--------|
C|-%-------|-%-------|-%-------|-%-----------------------------|---------------------------------|
C|-%-------|-%-------|-%-------|-%-----------------------------|-36----40---------36---40----36--|
C|---------|---------|---------|-------------------------------|---------------------------------|
C|---------|---------|---------|-------------------------------|---------------------------------|


C|-----------------------------|-57------------------------------|-----------------------------|
C|-46--------42----42----42----|-------42----42--------42--------|-46--------42----42----42----|
C|-----------------------------|---------------------------------|-----------------------------|
C|-36---36---40----36----40----|-36----40---------36---40----36--|-36---36---40----36----40----|
C|-----------------------------|---------------------------------|-----------------------------|
C|-----------------------------|---------------------------------|-----------------------------|


C|-57------------------------------|-----------------------------|-57------------------------------|
C|-------46----46--------46--------|-46--------46----46----46----|-------46----46--------46--------|
C|---------------------------------|-----------------------------|---------------------------------|
C|-36----40---------36---40----36--|-36---36---40----36----40----|-36----40---------36---40----36--|
C|---------------------------------|-----------------------------|---------------------------------|
C|---------------------------------|-----------------------------|---------------------------------|


C|-----------------------------|-57------------------------------|-----------------------------|
C|-46--------46----46----46----|-------46----46--------46--------|-46--------46----46----46----|
C|-----------------------------|---------------------------------|-----------------------------|
C|-36---36---40----36----40----|-36----40---------36---40----36--|-36---36---40----36----40----|
C|-----------------------------|---------------------------------|-----------------------------|
C|-----------------------------|---------------------------------|-----------------------------|


C|-57------------------------------|-----------------------------|-57------------------------------|
C|-------46----46--------46--------|-46--------46----46----46----|-------46----46--------46--------|
C|---------------------------------|-----------------------------|---------------------------------|
C|-36----40---------36---40----36--|-36---36---40----36----40----|-36----40---------36---40----36--|
C|---------------------------------|-----------------------------|---------------------------------|
C|---------------------------------|-----------------------------|---------------------------------|


C|-----------------------------|-57------------------------------|-----------------------------|
C|-46--------46----46----46----|-------46----46--------46--------|-46--------46----46----46----|
C|-----------------------------|---------------------------------|-----------------------------|
C|-36---36---40----36----40----|-36----40---------36---40----36--|-36---36---40----36----40----|
C|-----------------------------|---------------------------------|-----------------------------|
C|-----------------------------|---------------------------------|-----------------------------|


C|-57------------------------------|-----------------------------|-57------------------------------|
C|-------46----46--------46--------|-46--------46----46----46----|-------46----46--------46--------|
C|---------------------------------|-----------------------------|---------------------------------|
C|-36----40---------36---40----36--|-36---36---40----36----40----|-36----40---------36---40----36--|
C|---------------------------------|-----------------------------|---------------------------------|
C|---------------------------------|-----------------------------|---------------------------------|


C|---------------------------------|-57------------------------------|-----------------------------|
C|-46--------46----46--------46----|-------46----46--------46--------|-46--------46----46----46----|
C|---------------------------------|---------------------------------|-----------------------------|
C|-36----36--40----36---36---40----|-36----40---------36---40----36--|-36---36---40----36----40----|
C|---------------------------------|---------------------------------|-----------------------------|
C|---------------------------------|---------------------------------|-----------------------------|


C|-57------------------------------|---------------------------------|-57------------------------------|
C|-------46----46--------46--------|-46--------46----46--------46----|-------46----46--------46--------|
C|---------------------------------|---------------------------------|---------------------------------|
C|-36----40---------36---40----36--|-36----36--40----36---36---40----|-36----40---------36---40----36--|
C|---------------------------------|---------------------------------|---------------------------------|
C|---------------------------------|---------------------------------|---------------------------------|


C|-----------------------------|-57------------------------------|-----------------------------|
C|-46--------46----46----46----|-------46----46--------46--------|-46--------46----46----46----|
C|-----------------------------|---------------------------------|-----------------------------|
C|-36---36---40----36----40----|-36----40---------36---40----36--|-36---36---40----36----40----|
C|-----------------------------|---------------------------------|-----------------------------|
C|-----------------------------|---------------------------------|-----------------------------|


C|-57------------------------------|-----------------------------|-57------------------------------|
C|-------46----46--------46--------|-46--------46----46----46----|-------46----46--------46--------|
C|---------------------------------|-----------------------------|---------------------------------|
C|-36----40---------36---40----36--|-36---36---40----36----40----|-36----40---------36---40----36--|
C|---------------------------------|-----------------------------|---------------------------------|
C|---------------------------------|-----------------------------|---------------------------------|


C|-----------------------------|-57------------------------------|-----------------------------|
C|-46--------46----46----46----|-------46----46--------46--------|-46--------46----46----46----|
C|-----------------------------|---------------------------------|-----------------------------|
C|-36---36---40----36----40----|-36----40---------36---40----36--|-36---36---40----36----40----|
C|-----------------------------|---------------------------------|-----------------------------|
C|-----------------------------|---------------------------------|-----------------------------|


C|-57------------------------------|-----------------------------|-57------------------------------|
C|-------46----46--------46--------|-46--------46----46----46----|-------46----46--------46--------|
C|---------------------------------|-----------------------------|---------------------------------|
C|-36----40---------36---40----36--|-36---36---40----36----40----|-36----40---------36---40----36--|
C|---------------------------------|-----------------------------|---------------------------------|
C|---------------------------------|-----------------------------|---------------------------------|


C|-----------------------------|-57------------------------------|-----------------------------|
C|-46--------46----46----46----|-------46----46--------46--------|-46--------46----46----46----|
C|-----------------------------|---------------------------------|-----------------------------|
C|-36---36---40----36----40----|-36----40---------36---40----36--|-36---36---40----36----40----|
C|-----------------------------|---------------------------------|-----------------------------|
C|-----------------------------|---------------------------------|-----------------------------|


C|-57------------------------------|-----------------------------|-57------------------------------|
C|-------46----46--------46--------|-46--------46----46----46----|-------46----46--------46--------|
C|---------------------------------|-----------------------------|---------------------------------|
C|-36----40---------36---40----36--|-36---36---40----36----40----|-36----40---------36---40----36--|
C|---------------------------------|-----------------------------|---------------------------------|
C|---------------------------------|-----------------------------|---------------------------------|


C|---------------------------------|-57------------------------------|-----------------------------|
C|-46--------46----46--------46----|-------46----46--------46--------|-46--------46----46----46----|
C|---------------------------------|---------------------------------|-----------------------------|
C|-36----36--40----36---36---40----|-36----40---------36---40----36--|-36---36---40----36----40----|
C|---------------------------------|---------------------------------|-----------------------------|
C|---------------------------------|---------------------------------|-----------------------------|


C|-57------------------------------|---------------------------------|-----------------------------|
C|-------46----46--------46--------|-46--------46----46--------46----|-57----46--------46----46----|
C|---------------------------------|---------------------------------|-----------------------------|
C|-36----40---------36---40----36--|-36----36--40----36---36---40----|-36----40---36---36----40----|
C|---------------------------------|---------------------------------|-----------------------------|
C|---------------------------------|---------------------------------|-----------------------------|


C|---------------------------------|-----------------------------|------------------------------------------|
C|-46----46----46--------46--------|-57----46--------46----46----|-46----46----46-----------46--------------|
C|---------------------------------|-----------------------------|------------------------------------------|
C|-36----40----36---36---40----36--|-36----40---36---36----40----|-36----40----36---36--36--40--36--36--36--|
C|---------------------------------|-----------------------------|------------------------------------------|
C|---------------------------------|-----------------------------|------------------------------------------|


C|-----------------------------|---------------------------------|-----------------------------|
C|-57----46--------46----46----|-46----46----46--------46--------|-57----46--------46----46----|
C|-----------------------------|---------------------------------|-----------------------------|
C|-36----40---36---36----40----|-36----40----36---36---40----36--|-36----40---36---36----40----|
C|-----------------------------|---------------------------------|-----------------------------|
C|-----------------------------|---------------------------------|-----------------------------|


C|------------------------------------|-57------------------------------|---------------------------------|
C|-46----46----46--------46-----------|-------46----46--------46--------|-46--------46----46--------46----|
C|------------------------------------|---------------------------------|------%--------------------------|
C|-36----40----36---36---40---36--36--|-36----40---------36---40---36---|-36---%----40----36---36---40----|
C|------------------------------------|---------------------------------|---------------------------------|
C|------------------------------------|---------------------------------|---------------------------------|


C|-57------------------------------|---------------------------------|-57------------------------------|
C|-------46----46--------46--------|-46--------46----46--------46----|-------46----46--------46--------|
C|---------------------------------|------%--------------------------|---------------------------------|
C|-36----40---------36---40---36---|-36---%----40----36---36---40----|-36----40---------36---40---36---|
C|---------------------------------|---------------------------------|---------------------------------|
C|---------------------------------|---------------------------------|---------------------------------|


C|---------------------------------|-57------------------------------|---------------------------------|
C|-46--------46----46--------46----|-------46----46--------46--------|-46--------46----46--------46----|
C|------%--------------------------|---------------------------------|------%--------------------------|
C|-36---%----40----36---36---40----|-36----40---------36---40---36---|-36---%----40----36---36---40----|
C|---------------------------------|---------------------------------|---------------------------------|
C|---------------------------------|---------------------------------|---------------------------------|


C|-57--------------------------|---------------------------------|-57--------------------------|
C|-------46----46--------46----|-46--------46--------46----46----|-------46----46--------46----|
C|-----------------------------|------%--------------------------|-----------------------------|
C|-36----40----36---36---40----|-36---%----40---36---36----40----|-36----40----36---36---40----|
C|-----------------------------|---------------------------------|-----------------------------|
C|-----------------------------|---------------------------------|-----------------------------|


C|---------------------------------|-57--------------------------|---------------------------------|
C|-46--------46--------46----46----|-------46----46--------46----|-46--------46--------46----46----|
C|------%--------------------------|-----------------------------|------%--------------------------|
C|-36---%----40---36---36----40----|-36----40----36---36---40----|-36---%----40---36---36----40----|
C|---------------------------------|-----------------------------|---------------------------------|
C|---------------------------------|-----------------------------|---------------------------------|


C|-57--------------------------|----------------------------------------|-57--------------------------|
C|-------46----46--------46----|-46--------46--------46----46-----------|-------46----46--------46----|
C|-----------------------------|------%---------------------------------|-----------------------------|
C|-36----40----36---36---40----|-36---%----40---36---36----40---36--36--|-36----40----36---36---40----|
C|-----------------------------|----------------------------------------|-----------------------------|
C|-----------------------------|----------------------------------------|-----------------------------|


C|---------------------------------|-57--------------------------|---------------------------------|
C|-46--------46--------46----46----|-------46----46--------46----|-46--------46--------46----46----|
C|------%--------------------------|-----------------------------|------%--------------------------|
C|-36---%----40---36---36----40----|-36----40----36---36---40----|-36---%----40---36---36----40----|
C|---------------------------------|-----------------------------|---------------------------------|
C|---------------------------------|-----------------------------|---------------------------------|


C|-57--------------------------|---------------------------------|-57--------------------------|
C|-------46----46--------46----|-46--------46--------46----46----|-------46----46--------46----|
C|-----------------------------|------%--------------------------|-----------------------------|
C|-36----40----36---36---40----|-36---%----40---36---36----40----|-36----40----36---36---40----|
C|-----------------------------|---------------------------------|-----------------------------|
C|-----------------------------|---------------------------------|-----------------------------|


C|----------------------------------------|-57------------------------------|---------------------------------|
C|-46--------46--------46----46-----------|-------46----46--------46--------|-46--------46----46--------46----|
C|------%---------------------------------|---------------------------------|------%--------------------------|
C|-36---%----40---36---36----40---36--36--|-36----40---------36---40---36---|-36---%----40----36---36---40----|
C|----------------------------------------|---------------------------------|---------------------------------|
C|----------------------------------------|---------------------------------|---------------------------------|


C|-57------------------------------|---------------------------------|-57------------------------------|
C|-------46----46--------46--------|-46--------46----46--------46----|-------46----46--------46--------|
C|---------------------------------|------%--------------------------|---------------------------------|
C|-36----40---------36---40---36---|-36---%----40----36---36---40----|-36----40---------36---40---36---|
C|---------------------------------|---------------------------------|---------------------------------|
C|---------------------------------|---------------------------------|---------------------------------|


C|---------------------------------|-57------------------------------|----------------------------------------|
C|-46--------46----46--------46----|-------46----46--------46--------|-46--------46----46--------46-----------|
C|------%--------------------------|---------------------------------|------%---------------------------------|
C|-36---%----40----36---36---40----|-36----40---------36---40---36---|-36---%----40----36---36---40---36--36--|
C|---------------------------------|---------------------------------|----------------------------------------|
C|---------------------------------|---------------------------------|----------------------------------------|


C|-57------------------------------|-----------------------------|-57------------------------------|
C|-------46----46--------46--------|-46--------46----46----46----|-------46----46--------46--------|
C|---------------------------------|-----------------------------|---------------------------------|
C|-36----40---------36---40----36--|-36---36---40----36----40----|-36----40---------36---40----36--|
C|---------------------------------|-----------------------------|---------------------------------|
C|---------------------------------|-----------------------------|---------------------------------|


C|-----------------------------|-57------------------------------|-----------------------------|
C|-46--------46----46----46----|-------46----46--------46--------|-46--------46----46----46----|
C|-----------------------------|---------------------------------|-----------------------------|
C|-36---36---40----36----40----|-36----40---------36---40----36--|-36---36---40----36----40----|
C|-----------------------------|---------------------------------|-----------------------------|
C|-----------------------------|---------------------------------|-----------------------------|


C|-57------------------------------|-----------------------------|-----------------------------|
C|-------46----46--------46--------|-46--------46----46----46----|-57----46--------46----46----|
C|---------------------------------|-----------------------------|-----------------------------|
C|-36----40---------36---40----36--|-36---36---40----36----40----|-36----40---36---36----40----|
C|---------------------------------|-----------------------------|-----------------------------|
C|---------------------------------|-----------------------------|-----------------------------|


C|---------------------------------|-----------------------------|------------------------------------------|
C|-46----46----46--------46--------|-57----46--------46----46----|-46----46----46-----------46--------------|
C|---------------------------------|-----------------------------|------------------------------------------|
C|-36----40----36---36---40----36--|-36----40---36---36----40----|-36----40----36---36--36--40--36--36--36--|
C|---------------------------------|-----------------------------|------------------------------------------|
C|---------------------------------|-----------------------------|------------------------------------------|


C|-----------------------------|---------------------------------|-----------------------------|
C|-57----46--------46----46----|-46----46----46--------46--------|-57----46--------46----46----|
C|-----------------------------|---------------------------------|-----------------------------|
C|-36----40---36---36----40----|-36----40----36---36---40----36--|-36----40---36---36----40----|
C|-----------------------------|---------------------------------|-----------------------------|
C|-----------------------------|---------------------------------|-----------------------------|


C|------------------------------------|-57------------------------------|---------------------------------|
C|-46----46----46--------46-----------|-------46----46--------46--------|-46--------46----46--------46----|
C|------------------------------------|---------------------------------|------%--------------------------|
C|-36----40----36---36---40---36--36--|-36----40---------36---40---36---|-36---%----40----36---36---40----|
C|------------------------------------|---------------------------------|---------------------------------|
C|------------------------------------|---------------------------------|---------------------------------|


C|-57------------------------------|---------------------------------|-57------------------------------|
C|-------46----46--------46--------|-46--------46----46--------46----|-------46----46--------46--------|
C|---------------------------------|------%--------------------------|---------------------------------|
C|-36----40---------36---40---36---|-36---%----40----36---36---40----|-36----40---------36---40---36---|
C|---------------------------------|---------------------------------|---------------------------------|
C|---------------------------------|---------------------------------|---------------------------------|


C|---------------------------------|-57------------------------------|---------------------------------|
C|-46--------46----46--------46----|-------46----46--------46--------|-46--------46----46--------46----|
C|------%--------------------------|---------------------------------|------%--------------------------|
C|-36---%----40----36---36---40----|-36----40---------36---40---36---|-36---%----40----36---36---40----|
C|---------------------------------|---------------------------------|---------------------------------|
C|---------------------------------|---------------------------------|---------------------------------|


C|-----------------------------|---------------------------------|-----------------------------|
C|-57----46--------46----46----|-46----46----46--------46--------|-57----46--------46----46----|
C|-----------------------------|---------------------------------|-----------------------------|
C|-36----40---36---36----40----|-36----40----36---36---40----36--|-36----40---36---36----40----|
C|-----------------------------|---------------------------------|-----------------------------|
C|-----------------------------|---------------------------------|-----------------------------|


C|------------------------------------------|-----------------------------|---------------------------------|
C|-46----46----46-----------46--------------|-57----46--------46----46----|-46----46----46--------46--------|
C|------------------------------------------|-----------------------------|---------------------------------|
C|-36----40----36---36--36--40--36--36--36--|-36----40---36---36----40----|-36----40----36---36---40----36--|
C|------------------------------------------|-----------------------------|---------------------------------|
C|------------------------------------------|-----------------------------|---------------------------------|


C|-----------------------------|------------------------------------|---------|---------|
C|-57----46--------46----46----|-46----46----46--------46-----------|-57------|---------|
C|-----------------------------|------------------------------------|-49------|-%-------|
C|-36----40---36---36----40----|-36----40----36---36---40---36--36--|-36------|-%-------|
C|-----------------------------|------------------------------------|---------|---------|
C|-----------------------------|------------------------------------|---------|---------|


C|---------|---------|---------|---------|---------|---------|---------|---------|---------|
C|---------|---------|---------|---------|---------|---------|---------|---------|---------|
C|-%-------|-%-------|-%-------|-%-------|-%-------|-%-------|-%-------|-%-------|-%-------|
C|-%-------|-%-------|-%-------|-%-------|-%-------|-%-------|-%-------|-%-------|-%-------|
C|---------|---------|---------|---------|---------|---------|---------|---------|---------|
C|---------|---------|---------|---------|---------|---------|---------|---------|---------|


C|---------|---------|
C|---------|---------|
C|-%-------|-%-------|
C|-%-------|-%-------|
C|---------|---------|
C|---------|---------|

    

Nézd meg a videót és ismerd meg a leggyorsabb utat, hogyan tanulhatod meg kedvenc számaid gitáron!