Hogyan játszd el gitáron a Unknown Artist – Lovin Dreams dalt?

Unknown Artist Lovin Dreams – GITÁR PRO TAB, KOTTA, AKKORDOK

Kotta típusa: Guit2

(Általában egy zeneszám minden kottája: gitár, szólógitár, basszusgitár, ének, zongora, dob stb. megtalálható az oldalon, de mindegyik egy külön bejegyzésben. Ha egy másik hangszer gitártabos kottáját keresed, akkor az oldal alján vagy a keresőben megtalálod. Sokszor a zenekar tagjának a neve lesz a kotta kategóriája.)

        


E|---------|---------|---------|---------|---------|---------|---------|---------|---------|
B|---------|---------|---------|---------|---------|---------|---------|-8-------|---------|
G|-%-------|-%-------|-%-------|-%-------|-9-------|-5-------|-9-------|-7-------|-9-------|
D|-%-------|-%-------|-%-------|-%-------|-9-------|-5-------|-9-------|-5-------|-9-------|
A|---------|---------|---------|---------|-7-------|-3-------|-7-------|---------|-7-------|
E|---------|---------|---------|---------|---------|---------|---------|---------|---------|


E|---------|---------|---------------|----------------------------------------|-------------------------------------|
B|---------|---------|-8-------------|----------------------------------------|-------------------------------------|
G|-5-------|-9-------|-7-------12----|-9----%----9----%---9----%---9----9-----|-5----%----5----%---5-----5----5-----|
D|-5-------|-9-------|-5-------12----|-9----%----9----%---9----%---9----9-----|-5----%----5----%---5-----5----5-----|
A|-3-------|-7-------|---------10----|-7---------7--------7--------7----7-----|-3---------3--------3-----3----3-----|
E|---------|---------|---------------|----------------------------------------|-------------------------------------|


E|----------------------------------------|-------------------------------------|----------------------------------------|
B|----------------------------------------|-8---------8--------8-----8----8-----|----------------------------------------|
G|-9----%----9----%---9----%---9----9-----|-7----%----7----%---7-----7----7-----|-9----%----9----%---9----%---9----9-----|
D|-9----%----9----%---9----%---9----9-----|-5----%----5----%---5-----5----5-----|-9----%----9----%---9----%---9----9-----|
A|-7---------7--------7--------7----7-----|-------------------------------------|-7---------7--------7--------7----7-----|
E|----------------------------------------|-------------------------------------|----------------------------------------|


E|-------------------------------------|----------------------------------------|-------------------------------------|
B|-------------------------------------|----------------------------------------|-8---------8--------8-----8----8-----|
G|-5----%----5----%---5-----5----5-----|-9----%----9----%---9----%---9----9-----|-7----%----7----%---7-----7----7-----|
D|-5----%----5----%---5-----5----5-----|-9----%----9----%---9----%---9----9-----|-5----%----5----%---5-----5----5-----|
A|-3---------3--------3-----3----3-----|-7---------7--------7--------7----7-----|-------------------------------------|
E|-------------------------------------|----------------------------------------|-------------------------------------|


E|-----------------------------------------|-----------------------------------------|
B|-----------------------------------------|-----------------------------------------|
G|-----------------------------------------|-----------------------------------------|
D|-7----7----7----7----7----7----10---10---|-2----2----2----2----2----2----5----5----|
A|-7----7----7----7----7----7----10---10---|-2----2----2----2----2----2----5----5----|
E|-5----5----5----5----5----5----8----8----|-0----0----0----0----0----0----3----3----|


E|-----------------------------------------|-------------------------------------------|
B|-----------------------------------------|-------------------------------------------|
G|-----------------------------------------|-7----%-------7----%-------9----9----9-----|
D|-7----7----7----7----7----7----10---10---|-7----%-------7----%-------9----9----9-----|
A|-7----7----7----7----7----7----10---10---|-5--------5---5------------7----7----7-----|
E|-5----5----5----5----5----5----8----8----|-----------------------0-------------------|


E|-----------------------------------------|-----------------------------------------|
B|-----------------------------------------|-----------------------------------------|
G|-----------------------------------------|-----------------------------------------|
D|-7----7----7----7----7----7----10---10---|-2----2----2----2----2----2----5----5----|
A|-7----7----7----7----7----7----10---10---|-2----2----2----2----2----2----5----5----|
E|-5----5----5----5----5----5----8----8----|-0----0----0----0----0----0----3----3----|


E|-----------------------------------------|-------------------------------------------|
B|-----------------------------------------|-------------------------------------------|
G|-----------------------------------------|-7----%-------7----%-------9----9----9-----|
D|-7----7----7----7----7----7----10---10---|-7----%-------7----%-------9----9----9-----|
A|-7----7----7----7----7----7----10---10---|-5--------5---5------------7----7----7-----|
E|-5----5----5----5----5----5----8----8----|-----------------------0-------------------|


E|----------------------------------------|-------------------------------------|----------------------------------------|
B|----------------------------------------|-------------------------------------|----------------------------------------|
G|-9----%----9----%---9----%---9----9-----|-5----%----5----%---5-----5----5-----|-9----%----9----%---9----%---9----9-----|
D|-9----%----9----%---9----%---9----9-----|-5----%----5----%---5-----5----5-----|-9----%----9----%---9----%---9----9-----|
A|-7---------7--------7--------7----7-----|-3---------3--------3-----3----3-----|-7---------7--------7--------7----7-----|
E|----------------------------------------|-------------------------------------|----------------------------------------|


E|-------------------------------------|----------------------------------------|-------------------------------------|
B|-8---------8--------8-----8----8-----|----------------------------------------|-------------------------------------|
G|-7----%----7----%---7-----7----7-----|-9----%----9----%---9----%---9----9-----|-5----%----5----%---5-----5----5-----|
D|-5----%----5----%---5-----5----5-----|-9----%----9----%---9----%---9----9-----|-5----%----5----%---5-----5----5-----|
A|-------------------------------------|-7---------7--------7--------7----7-----|-3---------3--------3-----3----3-----|
E|-------------------------------------|----------------------------------------|-------------------------------------|


E|----------------------------------------|-------------------------------------|----------------------------------------|
B|----------------------------------------|-8---------8--------8-----8----8-----|----------------------------------------|
G|-9----%----9----%---9----%---9----9-----|-7----%----7----%---7-----7----7-----|-9----%----9----%---9----%---9----9-----|
D|-9----%----9----%---9----%---9----9-----|-5----%----5----%---5-----5----5-----|-9----%----9----%---9----%---9----9-----|
A|-7---------7--------7--------7----7-----|-------------------------------------|-7---------7--------7--------7----7-----|
E|----------------------------------------|-------------------------------------|----------------------------------------|


E|-------------------------------------|----------------------------------------|-------------------------------------|
B|-------------------------------------|----------------------------------------|-8---------8--------8-----8----8-----|
G|-5----%----5----%---5-----5----5-----|-9----%----9----%---9----%---9----9-----|-7----%----7----%---7-----7----7-----|
D|-5----%----5----%---5-----5----5-----|-9----%----9----%---9----%---9----9-----|-5----%----5----%---5-----5----5-----|
A|-3---------3--------3-----3----3-----|-7---------7--------7--------7----7-----|-------------------------------------|
E|-------------------------------------|----------------------------------------|-------------------------------------|


E|----------------------------------------|-------------------------------------|----------------------------------------|
B|----------------------------------------|-------------------------------------|----------------------------------------|
G|-9----%----9----%---9----%---9----9-----|-5----%----5----%---5-----5----5-----|-9----%----9----%---9----%---9----9-----|
D|-9----%----9----%---9----%---9----9-----|-5----%----5----%---5-----5----5-----|-9----%----9----%---9----%---9----9-----|
A|-7---------7--------7--------7----7-----|-3---------3--------3-----3----3-----|-7---------7--------7--------7----7-----|
E|----------------------------------------|-------------------------------------|----------------------------------------|


E|-------------------------------------|-----------------------------------------|-----------------------------------------|
B|-8---------8--------8-----8----8-----|-----------------------------------------|-----------------------------------------|
G|-7----%----7----%---7-----7----7-----|-----------------------------------------|-----------------------------------------|
D|-5----%----5----%---5-----5----5-----|-7----7----7----7----7----7----10---10---|-2----2----2----2----2----2----5----5----|
A|-------------------------------------|-7----7----7----7----7----7----10---10---|-2----2----2----2----2----2----5----5----|
E|-------------------------------------|-5----5----5----5----5----5----8----8----|-0----0----0----0----0----0----3----3----|


E|-----------------------------------------|-------------------------------------------|
B|-----------------------------------------|-------------------------------------------|
G|-----------------------------------------|-7----%-------7----%-------9----9----9-----|
D|-7----7----7----7----7----7----10---10---|-7----%-------7----%-------9----9----9-----|
A|-7----7----7----7----7----7----10---10---|-5--------5---5------------7----7----7-----|
E|-5----5----5----5----5----5----8----8----|-----------------------0-------------------|


E|-----------------------------------------|-----------------------------------------|
B|-----------------------------------------|-----------------------------------------|
G|-----------------------------------------|-----------------------------------------|
D|-7----7----7----7----7----7----10---10---|-2----2----2----2----2----2----5----5----|
A|-7----7----7----7----7----7----10---10---|-2----2----2----2----2----2----5----5----|
E|-5----5----5----5----5----5----8----8----|-0----0----0----0----0----0----3----3----|


E|-----------------------------------------|-------------------------------------------|
B|-----------------------------------------|-------------------------------------------|
G|-----------------------------------------|-7----%-------7----%-------9----9----9-----|
D|-7----7----7----7----7----7----10---10---|-7----%-------7----%-------9----9----9-----|
A|-7----7----7----7----7----7----10---10---|-5--------5---5------------7----7----7-----|
E|-5----5----5----5----5----5----8----8----|-----------------------0-------------------|


E|---------------------|---------|---------------------|---------|---------------------|
B|---------------------|---------|---------------------|---------|---------------------|
G|-5------7------4-----|---------|-5------7------4-----|-9-------|-5------7------4-----|
D|-5------7------4-----|-7-------|-5------7------4-----|-7-------|-5------7------4-----|
A|-3------5------2-----|-7-------|-3------5------2-----|-7-------|-3------5------2-----|
E|---------------------|-5-------|---------------------|---------|---------------------|


E|---------|---------------------|---------|----------------12-----10--12--|-14----12----10---12----10----9----|
B|---------|---------------------|---------|-12-----14--15-----------------|-----------------------------------|
G|---------|-5------7------4-----|-9-------|-------------------------------|-----------------------------------|
D|-7-------|-5------7------4-----|-7-------|-------------------------------|-----------------------------------|
A|-7-------|-3------5------2-----|-7-------|-------------------------------|-----------------------------------|
E|-5-------|---------------------|---------|-------------------------------|-----------------------------------|


E|----------------12-----10--12--|-14----15----17---15--14--------------------------|
B|-12-----14--15-----------------|--------------------------17--15--17--15--14------|
G|-------------------------------|----------------------------------------------14--|
D|-------------------------------|--------------------------------------------------|
A|-------------------------------|--------------------------------------------------|
E|-------------------------------|--------------------------------------------------|


E|----------------12-----10--12--|-14----12----10---12----10----9----|----------------12-----10--12--|
B|-12-----14--15-----------------|-----------------------------------|-12-----14--15-----------------|
G|-------------------------------|-----------------------------------|-------------------------------|
D|-------------------------------|-----------------------------------|-------------------------------|
A|-------------------------------|-----------------------------------|-------------------------------|
E|-------------------------------|-----------------------------------|-------------------------------|


E|-14----15----17---15--14--------------------------|-15---15-----15---17---18----|
B|--------------------------17--15--17--15--14------|-----------------------------|
G|----------------------------------------------14--|-----------------------------|
D|--------------------------------------------------|-----------------------------|
A|--------------------------------------------------|-----------------------------|
E|--------------------------------------------------|-----------------------------|


E|-18---15---18--17-------------------|-------------------------------------------------18--17--15------|
B|-------------------18---------15----|---------------------15------15--17--15--17--18--------------18--|
G|-------------------------17---------|-14--15--17--15--17------17--------------------------------------|
D|------------------------------------|-----------------------------------------------------------------|
A|------------------------------------|-----------------------------------------------------------------|
E|------------------------------------|-----------------------------------------------------------------|


E|-----------------------------|---------------------------15----|-15----13---15---17----------|
B|-15-----18---15----18---15---|-13---15---15----13---15---------|------------------------18---|
G|-14----------14---------14---|---------------------------------|-----------------------------|
D|-----------------------------|---------------------------------|-----------------------------|
A|-----------------------------|---------------------------------|-----------------------------|
E|-----------------------------|---------------------------------|-----------------------------|


E|---------------------------15----|-12--13--15--17--17------|-17----18----20---20-----|
B|-13---15---15----13---15---------|-------------------------|-------------------------|
G|---------------------------------|-------------------------|-------------------------|
D|---------------------------------|-------------------------|-------------------------|
A|---------------------------------|-------------------------|-------------------------|
E|---------------------------------|-------------------------|-------------------------|


E|-17---18---20----18----17---------|------------------------------------|-----------------------------|
B|-----------------------------20---|-15---17---18-----17---15-----------|-----------------------------|
G|----------------------------------|---------------------------17--15---|-14-----15---14---12---------|
D|----------------------------------|------------------------------------|-----------------------14----|
A|----------------------------------|------------------------------------|-----------------------------|
E|----------------------------------|------------------------------------|-----------------------------|


E|-------------------------|----------------------------------------|---------17------15--17----------------------------------------------15--17--18--15--17--15------|
B|-------------------------|-------------17----------17--18--20-----|-15--17------18----------15--17--18----------15----------15--17--18--------------------------18--|
G|-12----14----15---17-----|-15--17--19------17--19-----------------|-------------------------------------15--17------15--17------------------------------------------|
D|-------------------------|----------------------------------------|-------------------------------------------------------------------------------------------------|
A|-------------------------|----------------------------------------|-------------------------------------------------------------------------------------------------|
E|-------------------------|----------------------------------------|-------------------------------------------------------------------------------------------------|


E|-15------|----------------12-----10--12--|-14----12----10---12----10----9----|----------------12-----10--12--|
B|---------|-12-----14--15-----------------|-----------------------------------|-12-----14--15-----------------|
G|---------|-------------------------------|-----------------------------------|-------------------------------|
D|---------|-------------------------------|-----------------------------------|-------------------------------|
A|---------|-------------------------------|-----------------------------------|-------------------------------|
E|---------|-------------------------------|-----------------------------------|-------------------------------|


E|-14----15----17---15--14--------------------------|----------------12-----10--12--|
B|--------------------------17--15--17--15--14------|-12-----14--15-----------------|
G|----------------------------------------------14--|-------------------------------|
D|--------------------------------------------------|-------------------------------|
A|--------------------------------------------------|-------------------------------|
E|--------------------------------------------------|-------------------------------|


E|-14----12----10---12----10----9----|----------------12-----10--12--|-14----15----17---15--14--------------------------|
B|-----------------------------------|-12-----14--15-----------------|--------------------------17--15--17--15--14------|
G|-----------------------------------|-------------------------------|----------------------------------------------14--|
D|-----------------------------------|-------------------------------|--------------------------------------------------|
A|-----------------------------------|-------------------------------|--------------------------------------------------|
E|-----------------------------------|-------------------------------|--------------------------------------------------|


E|----------------------------------------|-------------------------------------|----------------------------------------|
B|----------------------------------------|-------------------------------------|----------------------------------------|
G|-9----%----9----%---9----%---9----9-----|-5----%----5----%---5-----5----5-----|-9----%----9----%---9----%---9----9-----|
D|-9----%----9----%---9----%---9----9-----|-5----%----5----%---5-----5----5-----|-9----%----9----%---9----%---9----9-----|
A|-7---------7--------7--------7----7-----|-3---------3--------3-----3----3-----|-7---------7--------7--------7----7-----|
E|----------------------------------------|-------------------------------------|----------------------------------------|


E|-------------------------------------|----------------------------------------|-------------------------------------|
B|-8---------8--------8-----8----8-----|----------------------------------------|-------------------------------------|
G|-7----%----7----%---7-----7----7-----|-9----%----9----%---9----%---9----9-----|-5----%----5----%---5-----5----5-----|
D|-5----%----5----%---5-----5----5-----|-9----%----9----%---9----%---9----9-----|-5----%----5----%---5-----5----5-----|
A|-------------------------------------|-7---------7--------7--------7----7-----|-3---------3--------3-----3----3-----|
E|-------------------------------------|----------------------------------------|-------------------------------------|


E|----------------------------------------|-------------------------------------|---------------------|
B|----------------------------------------|-8---------8--------8-----8----8-----|---------------------|
G|-9----%----9----%---9----%---9----9-----|-7----%----7----%---7-----7----7-----|-5------7------4-----|
D|-9----%----9----%---9----%---9----9-----|-5----%----5----%---5-----5----5-----|-5------7------4-----|
A|-7---------7--------7--------7----7-----|-------------------------------------|-3------5------2-----|
E|----------------------------------------|-------------------------------------|---------------------|


E|---------|---------------------|---------|---------------------|---------|---------------------|
B|---------|---------------------|---------|---------------------|---------|---------------------|
G|---------|-5------7------4-----|-9-------|-5------7------4-----|---------|-5------7------4-----|
D|-7-------|-5------7------4-----|-7-------|-5------7------4-----|-7-------|-5------7------4-----|
A|-7-------|-3------5------2-----|-7-------|-3------5------2-----|-7-------|-3------5------2-----|
E|-5-------|---------------------|---------|---------------------|-5-------|---------------------|


E|---------|----------------12-----10--12--|-14----12----10---12----10----9----|----------------12-----10--12--|
B|---------|-12-----14--15-----------------|-----------------------------------|-12-----14--15-----------------|
G|-9-------|-------------------------------|-----------------------------------|-------------------------------|
D|-7-------|-------------------------------|-----------------------------------|-------------------------------|
A|-7-------|-------------------------------|-----------------------------------|-------------------------------|
E|---------|-------------------------------|-----------------------------------|-------------------------------|


E|-14----15----17---15--14--------------------------|----------------12-----10--12--|
B|--------------------------17--15--17--15--14------|-12-----14--15-----------------|
G|----------------------------------------------14--|-------------------------------|
D|--------------------------------------------------|-------------------------------|
A|--------------------------------------------------|-------------------------------|
E|--------------------------------------------------|-------------------------------|


E|-14----12----10---12----10----9----|----------------12-----10--12--|-14----15----17---15---14---12--------|
B|-----------------------------------|-12-----14--15-----------------|---------------------------------14---|
G|-----------------------------------|-------------------------------|--------------------------------------|
D|-----------------------------------|-------------------------------|--------------------------------------|
A|-----------------------------------|-------------------------------|--------------------------------------|
E|-----------------------------------|-------------------------------|--------------------------------------|


E|---------------------|---------|---------------------|---------|---------------------|
B|---------------------|---------|---------------------|---------|---------------------|
G|-5------7------4-----|---------|-5------7------4-----|-9-------|-5------7------4-----|
D|-5------7------4-----|-7-------|-5------7------4-----|-7-------|-5------7------4-----|
A|-3------5------2-----|-7-------|-3------5------2-----|-7-------|-3------5------2-----|
E|---------------------|-5-------|---------------------|---------|---------------------|


E|---------|---------------------|---------|---------|---------|---------|---------|
B|---------|---------------------|---------|---------|---------|---------|---------|
G|---------|-5------7------4-----|-9-------|-9-------|-9-------|-9-------|-9-------|
D|-7-------|-5------7------4-----|-7-------|-9-------|-9-------|-9-------|-9-------|
A|-7-------|-3------5------2-----|-7-------|-7-------|-7-------|-7-------|-7-------|
E|-5-------|---------------------|---------|---------|---------|---------|---------|


E|---------|---------|---------|---------|---------|---------|---------|---------|---------|
B|---------|---------|---------|---------|---------|---------|---------|---------|---------|
G|-9-------|-9-------|-9-------|-9-------|-9-------|-9-------|-9-------|-9-------|-%-------|
D|-9-------|-9-------|-9-------|-9-------|-9-------|-9-------|-9-------|-9-------|-%-------|
A|-7-------|-7-------|-7-------|-7-------|-7-------|-7-------|-7-------|-7-------|---------|
E|---------|---------|---------|---------|---------|---------|---------|---------|---------|

    

Nézd meg a videót és ismerd meg a leggyorsabb utat, hogyan tanulhatod meg kedvenc számaid gitáron!