Hogyan játszd el gitáron a Unknown Artist – Lovin Dreams dalt?

Unknown Artist Lovin Dreams – GITÁR PRO TAB, KOTTA, AKKORDOK

Kotta típusa: Voice

(Általában egy zeneszám minden kottája: gitár, szólógitár, basszusgitár, ének, zongora, dob stb. megtalálható az oldalon, de mindegyik egy külön bejegyzésben. Ha egy másik hangszer gitártabos kottáját keresed, akkor az oldal alján vagy a keresőben megtalálod. Sokszor a zenekar tagjának a neve lesz a kotta kategóriája.)

        


E|---------|---------|---------|---------|---------|---------|---------|---------|---------|
B|---------|---------|---------|---------|---------|---------|---------|---------|---------|
G|-%-------|-%-------|-%-------|-%-------|-%-------|-%-------|-%-------|-%-------|-%-------|
D|-%-------|-%-------|-%-------|-%-------|-%-------|-%-------|-%-------|-%-------|-%-------|
A|---------|---------|---------|---------|---------|---------|---------|---------|---------|
E|---------|---------|---------|---------|---------|---------|---------|---------|---------|


E|---------|---------|---------|-----------10---12---12---10---8-----|-7----5----3----5-----7----8-----|
B|---------|---------|---------|-------------------------------------|---------------------------------|
G|-%-------|-%-------|-%-------|-%----%------------------------------|---------------------------------|
D|-%-------|-%-------|-%-------|-%----%------------------------------|---------------------------------|
A|---------|---------|---------|-------------------------------------|---------------------------------|
E|---------|---------|---------|-------------------------------------|---------------------------------|


E|-8----8----10---12---12---10---8-----|-7----8----10---12-----12---|-12---12---10---12---12---10---8-----|
B|-------------------------------------|----------------------------|-------------------------------------|
G|-------------------------------------|----------------------------|-------------------------------------|
D|-------------------------------------|----------------------------|-------------------------------------|
A|-------------------------------------|----------------------------|-------------------------------------|
E|-------------------------------------|----------------------------|-------------------------------------|


E|-7----5----3----5-----7----8-----|-8----8----10---12---12---10---8-----|-7----8----10---12-----12---|
B|---------------------------------|-------------------------------------|----------------------------|
G|---------------------------------|-------------------------------------|----------------------------|
D|---------------------------------|-------------------------------------|----------------------------|
A|---------------------------------|-------------------------------------|----------------------------|
E|---------------------------------|-------------------------------------|----------------------------|


E|-------14---15---17----15---14---|-12-----14---15----17---15---|-17-----15---14---12----15---|
B|---------------------------------|-----------------------------|-----------------------------|
G|-%-------------------------------|-----------------------------|-----------------------------|
D|-%-------------------------------|-----------------------------|-----------------------------|
A|---------------------------------|-----------------------------|-----------------------------|
E|---------------------------------|-----------------------------|-----------------------------|


E|-14-----17---15-----|-------14---15---17----15---14---|-12-----14---15----17---15---|
B|--------------------|---------------------------------|-----------------------------|
G|--------------------|-%-------------------------------|-----------------------------|
D|--------------------|-%-------------------------------|-----------------------------|
A|--------------------|---------------------------------|-----------------------------|
E|--------------------|---------------------------------|-----------------------------|


E|-17-----15---14---12----15---|-14-----17---15-----|---------|---------|---------|
B|-----------------------------|--------------------|---------|---------|---------|
G|-----------------------------|--------------------|-%-------|-%-------|-%-------|
D|-----------------------------|--------------------|-%-------|-%-------|-%-------|
A|-----------------------------|--------------------|---------|---------|---------|
E|-----------------------------|--------------------|---------|---------|---------|


E|---------|---------|---------|---------|---------|-----------10---12---12---10---8-----|
B|---------|---------|---------|---------|---------|-------------------------------------|
G|-%-------|-%-------|-%-------|-%-------|-%-------|-%----%------------------------------|
D|-%-------|-%-------|-%-------|-%-------|-%-------|-%----%------------------------------|
A|---------|---------|---------|---------|---------|-------------------------------------|
E|---------|---------|---------|---------|---------|-------------------------------------|


E|-7----5----3----5-----7----8-----|-8----8----10---12---12---10---8-----|-7----8----10---12-----12---|
B|---------------------------------|-------------------------------------|----------------------------|
G|---------------------------------|-------------------------------------|----------------------------|
D|---------------------------------|-------------------------------------|----------------------------|
A|---------------------------------|-------------------------------------|----------------------------|
E|---------------------------------|-------------------------------------|----------------------------|


E|-12---12---10---12---12---10---8-----|-7----5----3----5-----7----8-----|-8----8----10---12---12---10---8-----|
B|-------------------------------------|---------------------------------|-------------------------------------|
G|-------------------------------------|---------------------------------|-------------------------------------|
D|-------------------------------------|---------------------------------|-------------------------------------|
A|-------------------------------------|---------------------------------|-------------------------------------|
E|-------------------------------------|---------------------------------|-------------------------------------|


E|-7----8----10---12-----12---|-------14---15---17----15---14---|-12-----14---15----17---15---|
B|----------------------------|---------------------------------|-----------------------------|
G|----------------------------|-%-------------------------------|-----------------------------|
D|----------------------------|-%-------------------------------|-----------------------------|
A|----------------------------|---------------------------------|-----------------------------|
E|----------------------------|---------------------------------|-----------------------------|


E|-17-----15---14---12----15---|-14-----17---15-----|-------14---15---17----15---14---|
B|-----------------------------|--------------------|---------------------------------|
G|-----------------------------|--------------------|-%-------------------------------|
D|-----------------------------|--------------------|-%-------------------------------|
A|-----------------------------|--------------------|---------------------------------|
E|-----------------------------|--------------------|---------------------------------|


E|-12-----14---15----17---15---|-17-----15---14---12----15---|-14-----17---15-----14---|
B|-----------------------------|-----------------------------|-------------------------|
G|-----------------------------|-----------------------------|-------------------------|
D|-----------------------------|-----------------------------|-------------------------|
A|-----------------------------|-----------------------------|-------------------------|
E|-----------------------------|-----------------------------|-------------------------|


E|-15-----17-----14----|-12-----------14---|-15-----17-----19----|-20-----------17---|
B|---------------------|-------------------|---------------------|-------------------|
G|---------------------|---------%---------|---------------------|---------%---------|
D|---------------------|---------%---------|---------------------|---------%---------|
A|---------------------|-------------------|---------------------|-------------------|
E|---------------------|-------------------|---------------------|-------------------|


E|-20-----17-----19----|-17-----------14---|-15-----14-----15----|-17------|---------|
B|---------------------|-------------------|---------------------|---------|---------|
G|---------------------|---------%---------|---------------------|---------|-%-------|
D|---------------------|---------%---------|---------------------|---------|-%-------|
A|---------------------|-------------------|---------------------|---------|---------|
E|---------------------|-------------------|---------------------|---------|---------|


E|---------|---------|---------|---------|---------|---------|---------|---------|---------|
B|---------|---------|---------|---------|---------|---------|---------|---------|---------|
G|-%-------|-%-------|-%-------|-%-------|-%-------|-%-------|-%-------|-%-------|-%-------|
D|-%-------|-%-------|-%-------|-%-------|-%-------|-%-------|-%-------|-%-------|-%-------|
A|---------|---------|---------|---------|---------|---------|---------|---------|---------|
E|---------|---------|---------|---------|---------|---------|---------|---------|---------|


E|---------|---------|---------|---------|---------|---------|---------|---------|---------|
B|---------|---------|---------|---------|---------|---------|---------|---------|---------|
G|-%-------|-%-------|-%-------|-%-------|-%-------|-%-------|-%-------|-%-------|-%-------|
D|-%-------|-%-------|-%-------|-%-------|-%-------|-%-------|-%-------|-%-------|-%-------|
A|---------|---------|---------|---------|---------|---------|---------|---------|---------|
E|---------|---------|---------|---------|---------|---------|---------|---------|---------|


E|---------|---------|---------|---------|---------|---------|---------|---------|---------|
B|---------|---------|---------|---------|---------|---------|---------|---------|---------|
G|-%-------|-%-------|-%-------|-%-------|-%-------|-%-------|-%-------|-%-------|-%-------|
D|-%-------|-%-------|-%-------|-%-------|-%-------|-%-------|-%-------|-%-------|-%-------|
A|---------|---------|---------|---------|---------|---------|---------|---------|---------|
E|---------|---------|---------|---------|---------|---------|---------|---------|---------|


E|---------|---------|---------|---------|-----------10---12---12---10---8-----|-7----5----3----5-----7----8-----|
B|---------|---------|---------|---------|-------------------------------------|---------------------------------|
G|-%-------|-%-------|-%-------|-%-------|-%----%------------------------------|---------------------------------|
D|-%-------|-%-------|-%-------|-%-------|-%----%------------------------------|---------------------------------|
A|---------|---------|---------|---------|-------------------------------------|---------------------------------|
E|---------|---------|---------|---------|-------------------------------------|---------------------------------|


E|-8----8----10---12---12---10---8-----|-7----8----10---12-----12---|-12---12---10---12---12---10---8-----|
B|-------------------------------------|----------------------------|-------------------------------------|
G|-------------------------------------|----------------------------|-------------------------------------|
D|-------------------------------------|----------------------------|-------------------------------------|
A|-------------------------------------|----------------------------|-------------------------------------|
E|-------------------------------------|----------------------------|-------------------------------------|


E|-7----5----3----5-----7----8-----|-8----8----10---12---12---10---8-----|-7----8----10---12-----14---|
B|---------------------------------|-------------------------------------|----------------------------|
G|---------------------------------|-------------------------------------|----------------------------|
D|---------------------------------|-------------------------------------|----------------------------|
A|---------------------------------|-------------------------------------|----------------------------|
E|---------------------------------|-------------------------------------|----------------------------|


E|-15-----17-----14----|-12-----------14---|-15-----17-----19----|-20-----------17---|
B|---------------------|-------------------|---------------------|-------------------|
G|---------------------|---------%---------|---------------------|---------%---------|
D|---------------------|---------%---------|---------------------|---------%---------|
A|---------------------|-------------------|---------------------|-------------------|
E|---------------------|-------------------|---------------------|-------------------|


E|-20-----17-----19----|-17-----------14---|-15-----14-----15----|-17------|---------|
B|---------------------|-------------------|---------------------|---------|---------|
G|---------------------|---------%---------|---------------------|---------|-%-------|
D|---------------------|---------%---------|---------------------|---------|-%-------|
A|---------------------|-------------------|---------------------|---------|---------|
E|---------------------|-------------------|---------------------|---------|---------|


E|---------|---------|---------|---------|---------|---------|---------------14---|
B|---------|---------|---------|---------|---------|---------|--------------------|
G|-%-------|-%-------|-%-------|-%-------|-%-------|-%-------|-%------%-----------|
D|-%-------|-%-------|-%-------|-%-------|-%-------|-%-------|-%------%-----------|
A|---------|---------|---------|---------|---------|---------|--------------------|
E|---------|---------|---------|---------|---------|---------|--------------------|


E|-15-----17-----14----|-12-----------14---|-15-----17-----19----|-20-----------17---|
B|---------------------|-------------------|---------------------|-------------------|
G|---------------------|---------%---------|---------------------|---------%---------|
D|---------------------|---------%---------|---------------------|---------%---------|
A|---------------------|-------------------|---------------------|-------------------|
E|---------------------|-------------------|---------------------|-------------------|


E|-20-----17-----19----|-17-----------14---|-15-----14-----15----|-17------|---------|
B|---------------------|-------------------|---------------------|---------|---------|
G|---------------------|---------%---------|---------------------|---------|-%-------|
D|---------------------|---------%---------|---------------------|---------|-%-------|
A|---------------------|-------------------|---------------------|---------|---------|
E|---------------------|-------------------|---------------------|---------|---------|


E|---------|---------|---------|---------|---------|---------|---------|---------|---------|
B|---------|---------|---------|---------|---------|---------|---------|---------|---------|
G|-%-------|-%-------|-%-------|-%-------|-%-------|-%-------|-%-------|-%-------|-%-------|
D|-%-------|-%-------|-%-------|-%-------|-%-------|-%-------|-%-------|-%-------|-%-------|
A|---------|---------|---------|---------|---------|---------|---------|---------|---------|
E|---------|---------|---------|---------|---------|---------|---------|---------|---------|


E|---------|---------|---------|
B|---------|---------|---------|
G|-%-------|-%-------|-%-------|
D|-%-------|-%-------|-%-------|
A|---------|---------|---------|
E|---------|---------|---------|

    

Nézd meg a videót és ismerd meg a leggyorsabb utat, hogyan tanulhatod meg kedvenc számaid gitáron!