Hogyan játszd el gitáron a Unknown Artist – Mariners On The Orizon dalt?

Unknown Artist Mariners On The Orizon – GITÁR PRO TAB, KOTTA, AKKORDOK

Kotta típusa: Drums

(Általában egy zeneszám minden kottája: gitár, szólógitár, basszusgitár, ének, zongora, dob stb. megtalálható az oldalon, de mindegyik egy külön bejegyzésben. Ha egy másik hangszer gitártabos kottáját keresed, akkor az oldal alján vagy a keresőben megtalálod. Sokszor a zenekar tagjának a neve lesz a kotta kategóriája.)

        


C|-46----42---42---42---42---42---42---|-46----42---42---42---42---42---42---|-46----42---42---42---42---42---42---|
C|-------------------------------------|-------------------------------------|-------------------------------------|
C|-------------------------------------|-------------------------------------|-------------------------------------|
C|-------------------------------------|-------------------------------------|-------------------------------------|
C|-------------------------------------|-------------------------------------|-------------------------------------|
C|-------------------------------------|-------------------------------------|-------------------------------------|


C|-46----42---42---46---42---46---42---|-46----42---42---42---42---42---42---|-46----42---42---42---42---42---42---|
C|-------------------------------------|-------------------------------------|-------------------------------------|
C|-------------------------------------|-------------------------------------|-------------------------------------|
C|-------------------------------------|-------------------------------------|-------------------------------------|
C|-------------------------------------|-------------------------------------|-------------------------------------|
C|-------------------------------------|-------------------------------------|-------------------------------------|


C|-46----42---42---42---42---42---42---|-46----42---42---46---42---46---42---|-46----42---42---42---42---42---42---|
C|-------------------------------------|-------------------------------------|-------------------------------------|
C|-------------------------------------|-------------------------------------|-------------------------------------|
C|-------------------------------------|-------------------------------------|-------------------------------------|
C|-------------------------------------|-------------------------------------|-------------------------------------|
C|-------------------------------------|-------------------------------------|-------------------------------------|


C|-46----42---42---42---42---42---42---|-46----42---42---42---42---42---42---|-46----42---42---46---42---46---42---|
C|-------------------------------------|-------------------------------------|-------------------------------------|
C|-------------------------------------|-------------------------------------|-------------------------------------|
C|-------------------------------------|-------------------------------------|-------------------------------------|
C|-------------------------------------|-------------------------------------|-------------------------------------|
C|-------------------------------------|-------------------------------------|-------------------------------------|


C|-46----42---42---42---42---42---42---|-46----42---42---42---42---42---42---|-46----42---42---42---42---42---42---|
C|-------------------------------------|-------------------------------------|-------------------------------------|
C|-------------------------------------|-------------------------------------|-------------------------------------|
C|-------------------------------------|-------------------------------------|-------------------------------------|
C|-------------------------------------|-------------------------------------|-------------------------------------|
C|-------------------------------------|-------------------------------------|-------------------------------------|


C|-46----42---42---46---42---46---42---|-46----42---42---42---42---42---42---|-46----42---42---42---42---42---42---|
C|-------------------------------------|-------------------------------------|-------------------------------------|
C|-------------------------------------|-------------------------------------|-------------------------------------|
C|-------------------------------------|-------------------------------------|-------------------------------------|
C|-------------------------------------|-------------------------------------|-------------------------------------|
C|-------------------------------------|-------------------------------------|-------------------------------------|


C|-46----42---42---42---42---42---42---|-46----42---42---46---42---46---42---|-46----44----44----44--------|
C|-------------------------------------|-------------------------------------|-40----36----40----36---36---|
C|-------------------------------------|-------------------------------------|-----------------------------|
C|-------------------------------------|-------------------------------------|-----------------------------|
C|-------------------------------------|-------------------------------------|-----------------------------|
C|-------------------------------------|-------------------------------------|-----------------------------|


C|-46----44--------44----44-----------|-46----44----44----44--------|-46----44--------44----44-----------|
C|-40----36---36---40----36---36--36--|-40----36----40----36---36---|-40----36---36---40----36---36--36--|
C|------------------------------------|-----------------------------|------------------------------------|
C|------------------------------------|-----------------------------|------------------------------------|
C|------------------------------------|-----------------------------|------------------------------------|
C|------------------------------------|-----------------------------|------------------------------------|


C|-46----44----44----44--------|-46----44--------44----44-----------|-46----44----44----44--------|
C|-40----36----40----36---36---|-40----36---36---40----36---36--36--|-40----36----40----36---36---|
C|-----------------------------|------------------------------------|-----------------------------|
C|-----------------------------|------------------------------------|-----------------------------|
C|-----------------------------|------------------------------------|-----------------------------|
C|-----------------------------|------------------------------------|-----------------------------|


C|-46----44--------44----44-----------|-46----44----44----44--------|-46----44--------44----44-----------|
C|-40----36---36---40----36---36--36--|-40----36----40----36---36---|-40----36---36---40----36---36--36--|
C|------------------------------------|-----------------------------|------------------------------------|
C|------------------------------------|-----------------------------|------------------------------------|
C|------------------------------------|-----------------------------|------------------------------------|
C|------------------------------------|-----------------------------|------------------------------------|


C|-46----44----44----44--------|-46----44--------44----44-----------|-46----44----44----44--------|
C|-40----36----40----36---36---|-40----36---36---40----36---36--36--|-40----36----40----36---36---|
C|-----------------------------|------------------------------------|-----------------------------|
C|-----------------------------|------------------------------------|-----------------------------|
C|-----------------------------|------------------------------------|-----------------------------|
C|-----------------------------|------------------------------------|-----------------------------|


C|-46----44--------44----44-----------|-46----44----44----44--------|-46----44--------44----44-----------|
C|-40----36---36---40----36---36--36--|-40----36----40----36---36---|-40----36---36---40----36---36--36--|
C|------------------------------------|-----------------------------|------------------------------------|
C|------------------------------------|-----------------------------|------------------------------------|
C|------------------------------------|-----------------------------|------------------------------------|
C|------------------------------------|-----------------------------|------------------------------------|


C|-46----44----44----44--------|-46----44--------44----44-----------|-46----44----44----44--------|
C|-40----36----40----36---36---|-40----36---36---40----36---36--36--|-40----36----40----36---36---|
C|-----------------------------|------------------------------------|-----------------------------|
C|-----------------------------|------------------------------------|-----------------------------|
C|-----------------------------|------------------------------------|-----------------------------|
C|-----------------------------|------------------------------------|-----------------------------|


C|-46----44--------44----44-----------|-46----44---44---46----44---44------|-46----44------44---46--------44------44------|
C|-40----36---36---40----36---36--36--|-40----36---36---40----36---36--36--|-40----36--36--36---40---36---36--36--36--36--|
C|------------------------------------|------------------------------------|----------------------------------------------|
C|------------------------------------|------------------------------------|----------------------------------------------|
C|------------------------------------|------------------------------------|----------------------------------------------|
C|------------------------------------|------------------------------------|----------------------------------------------|


C|-46----44---44---46----44---44------|-46----44------44---46--------44------44------|
C|-40----36---36---40----36---36--36--|-40----36--36--36---40---36---36--36--36--36--|
C|------------------------------------|----------------------------------------------|
C|------------------------------------|----------------------------------------------|
C|------------------------------------|----------------------------------------------|
C|------------------------------------|----------------------------------------------|


C|-46----44---44---46----44---44------|-46----44------44---46--------44------44------|
C|-40----36---36---40----36---36--36--|-40----36--36--36---40---36---36--36--36--36--|
C|------------------------------------|----------------------------------------------|
C|------------------------------------|----------------------------------------------|
C|------------------------------------|----------------------------------------------|
C|------------------------------------|----------------------------------------------|


C|-46----44---44---46----44---44------|-46----44------44---46--------44------44------|
C|-40----36---36---40----36---36--36--|-40----36--36--36---40---36---36--36--36--36--|
C|------------------------------------|----------------------------------------------|
C|------------------------------------|----------------------------------------------|
C|------------------------------------|----------------------------------------------|
C|------------------------------------|----------------------------------------------|


C|-46----44---44---46----44---44------|-46----44------44---46--------44------44------|
C|-40----36---36---40----36---36--36--|-40----36--36--36---40---36---36--36--36--36--|
C|------------------------------------|----------------------------------------------|
C|------------------------------------|----------------------------------------------|
C|------------------------------------|----------------------------------------------|
C|------------------------------------|----------------------------------------------|


C|-46----44---44---46----44---44------|-46----44------44---46--------44------44------|
C|-40----36---36---40----36---36--36--|-40----36--36--36---40---36---36--36--36--36--|
C|------------------------------------|----------------------------------------------|
C|------------------------------------|----------------------------------------------|
C|------------------------------------|----------------------------------------------|
C|------------------------------------|----------------------------------------------|


C|-46----44---44---46----44---44------|-46----44------44---46--------44------44------|
C|-40----36---36---40----36---36--36--|-40----36--36--36---40---36---36--36--36--36--|
C|------------------------------------|----------------------------------------------|
C|------------------------------------|----------------------------------------------|
C|------------------------------------|----------------------------------------------|
C|------------------------------------|----------------------------------------------|


C|-46----44---44---46----44---44------|-46----44------44---46--------44------44------|
C|-40----36---36---40----36---36--36--|-40----36--36--36---40---36---36--36--36--36--|
C|------------------------------------|----------------------------------------------|
C|------------------------------------|----------------------------------------------|
C|------------------------------------|----------------------------------------------|
C|------------------------------------|----------------------------------------------|


C|-46----44---44---46----44---44------|-46----44------44---46--------44------44------|
C|-40----36---36---40----36---36--36--|-40----36--36--36---40---36---36--36--36--36--|
C|------------------------------------|----------------------------------------------|
C|------------------------------------|----------------------------------------------|
C|------------------------------------|----------------------------------------------|
C|------------------------------------|----------------------------------------------|


C|-46----44---44---46----44---44------|-46----44------44---46--------44------44------|
C|-40----36---36---40----36---36--36--|-40----36--36--36---40---36---36--36--36--36--|
C|------------------------------------|----------------------------------------------|
C|------------------------------------|----------------------------------------------|
C|------------------------------------|----------------------------------------------|
C|------------------------------------|----------------------------------------------|


C|-46----44---44---46----44---44------|-46----44------44---46--------44------44------|
C|-40----36---36---40----36---36--36--|-40----36--36--36---40---36---36--36--36--36--|
C|------------------------------------|----------------------------------------------|
C|------------------------------------|----------------------------------------------|
C|------------------------------------|----------------------------------------------|
C|------------------------------------|----------------------------------------------|


C|-46----44---44---46----44---44------|-46----44------44---46--------44------44------|
C|-40----36---36---40----36---36--36--|-40----36--36--36---40---36---36--36--36--36--|
C|------------------------------------|----------------------------------------------|
C|------------------------------------|----------------------------------------------|
C|------------------------------------|----------------------------------------------|
C|------------------------------------|----------------------------------------------|


C|-46----44---44---46----44---44------|-46----44------44---46--------44------44------|
C|-40----36---36---40----36---36--36--|-40----36--36--36---40---36---36--36--36--36--|
C|------------------------------------|----------------------------------------------|
C|------------------------------------|----------------------------------------------|
C|------------------------------------|----------------------------------------------|
C|------------------------------------|----------------------------------------------|


C|-46----44---44---46----44---44------|-46----44------44---46--------44------44------|
C|-40----36---36---40----36---36--36--|-40----36--36--36---40---36---36--36--36--36--|
C|------------------------------------|----------------------------------------------|
C|------------------------------------|----------------------------------------------|
C|------------------------------------|----------------------------------------------|
C|------------------------------------|----------------------------------------------|


C|-46----44---44---46----44---44------|-46----44------44---46--------44------44------|
C|-40----36---36---40----36---36--36--|-40----36--36--36---40---36---36--36--36--36--|
C|------------------------------------|----------------------------------------------|
C|------------------------------------|----------------------------------------------|
C|------------------------------------|----------------------------------------------|
C|------------------------------------|----------------------------------------------|


C|-46----44---44---46----44---44------|-46----44------44---46--------44------44------|
C|-40----36---36---40----36---36--36--|-40----36--36--36---40---36---36--36--36--36--|
C|------------------------------------|----------------------------------------------|
C|------------------------------------|----------------------------------------------|
C|------------------------------------|----------------------------------------------|
C|------------------------------------|----------------------------------------------|


C|-46----44---44---46----44---44------|-46----44------44---46--------44------44------|
C|-40----36---36---40----36---36--36--|-40----36--36--36---40---36---36--36--36--36--|
C|------------------------------------|----------------------------------------------|
C|------------------------------------|----------------------------------------------|
C|------------------------------------|----------------------------------------------|
C|------------------------------------|----------------------------------------------|


C|-46----44---44---46----44---44------|-46----44------44---46--------44------44------|
C|-40----36---36---40----36---36--36--|-40----36--36--36---40---36---36--36--36--36--|
C|------------------------------------|----------------------------------------------|
C|------------------------------------|----------------------------------------------|
C|------------------------------------|----------------------------------------------|
C|------------------------------------|----------------------------------------------|


C|-46----44---44---46----44---44------|-46----44------44---46--------44------44------|
C|-40----36---36---40----36---36--36--|-40----36--36--36---40---36---36--36--36--36--|
C|------------------------------------|----------------------------------------------|
C|------------------------------------|----------------------------------------------|
C|------------------------------------|----------------------------------------------|
C|------------------------------------|----------------------------------------------|


C|-46----44---44---46----44---44------|-46----44------44---46--------44------44------|
C|-40----36---36---40----36---36--36--|-40----36--36--36---40---36---36--36--36--36--|
C|------------------------------------|----------------------------------------------|
C|------------------------------------|----------------------------------------------|
C|------------------------------------|----------------------------------------------|
C|------------------------------------|----------------------------------------------|


C|---------|---------|---------|---------|---------|---------|---------|-----------------------------------------|
C|-40------|---------|---------|---------|---------|---------|---------|-36---36---36---36---36---36---36---36---|
C|-57------|-%-------|-%-------|-%-------|-%-------|-%-------|-%-------|-40---55--------40---40--------40---55---|
C|---------|-%-------|-%-------|-%-------|-%-------|-%-------|-%-------|-----------------------------------------|
C|---------|---------|---------|---------|---------|---------|---------|-----------------------------------------|
C|---------|---------|---------|---------|---------|---------|---------|-----------------------------------------|


C|-----------------------------------------|-----------------------------------------|
C|-36---36---36---36---36---36---36---36---|-36---36---36---36---36---36---36---36---|
C|-40---55--------40---40--------40---55---|-40---55--------40---40--------40---55---|
C|-----------------------------------------|-----------------------------------------|
C|-----------------------------------------|-----------------------------------------|
C|-----------------------------------------|-----------------------------------------|


C|-----------------------------------------|-----------------------------------------|
C|-36---36---36---36---36---36---36---36---|-36---36---36---36---36---36---36---36---|
C|-40---55--------40---40--------40---55---|-40---55--------40---40--------40---55---|
C|-----------------------------------------|-----------------------------------------|
C|-----------------------------------------|-----------------------------------------|
C|-----------------------------------------|-----------------------------------------|


C|-----------------------------------------|-----------------------------------------|
C|-36---36---36---36---36---36---36---36---|-36---36---36---36---36---36---36---36---|
C|-40---55--------40---40--------40---55---|-40---55--------40---40--------40---55---|
C|-----------------------------------------|-----------------------------------------|
C|-----------------------------------------|-----------------------------------------|
C|-----------------------------------------|-----------------------------------------|


C|-----------------------------------------|-----------------------------------------|
C|-36---36---36---36---36---36---36---36---|-36---36---36---36---36---36---36---36---|
C|-40---55--------40---40--------40---55---|-40---55--------40---40--------40---55---|
C|-----------------------------------------|-----------------------------------------|
C|-----------------------------------------|-----------------------------------------|
C|-----------------------------------------|-----------------------------------------|


C|-----------------------------------------|-----------------------------------------|
C|-36---36---36---36---36---36---36---36---|-36---36---36---36---36---36---36---36---|
C|-40---55--------40---40--------40---55---|-40---55--------40---40--------40---55---|
C|-----------------------------------------|-----------------------------------------|
C|-----------------------------------------|-----------------------------------------|
C|-----------------------------------------|-----------------------------------------|


C|-----------------------------------------------|-----------------------------------------------------------------|
C|-36---36---36---36---36------36---36---36------|-----------------------------------------------------------------|
C|-40---55--------40---40--40--55---40---40--40--|-40------46------40--------------40------40------46------40--40--|
C|-----------------------------------------------|-36--36--36--36--36--36--36--36--36--36--36--36--36--36--36--36--|
C|-----------------------------------------------|-36--36--36--36--36--36--36--36--36--36--36--36--36--36--36--36--|
C|-----------------------------------------------|-----------------------------------------------------------------|


C|-----------------------------------------------------------------|-----------------------------------------------------------------|
C|-----------------------------------------------------------------|-----------------------------------------------------------------|
C|-40------46------40--------------40------40------46------40--40--|-40------46------40--------------40------40------46------40--40--|
C|-36--36--36--36--36--36--36--36--36--36--36--36--36--36--36--36--|-36--36--36--36--36--36--36--36--36--36--36--36--36--36--36--36--|
C|-36--36--36--36--36--36--36--36--36--36--36--36--36--36--36--36--|-36--36--36--36--36--36--36--36--36--36--36--36--36--36--36--36--|
C|-----------------------------------------------------------------|-----------------------------------------------------------------|


C|-----------------------------------------------------------------|-----------------------------------------------------------------|
C|-----------------------------------------------------------------|-----------------------------------------------------------------|
C|-40------46------40--------------40------40------46------40--40--|-40------46------40--------------40------40------46------40--40--|
C|-36--36--36--36--36--36--36--36--36--36--36--36--36--36--36--36--|-36--36--36--36--36--36--36--36--36--36--36--36--36--36--36--36--|
C|-36--36--36--36--36--36--36--36--36--36--36--36--36--36--36--36--|-36--36--36--36--36--36--36--36--36--36--36--36--36--36--36--36--|
C|-----------------------------------------------------------------|-----------------------------------------------------------------|


C|-----------------------------------------------------------------|-----------------------------------------------------------------|
C|-----------------------------------------------------------------|-----------------------------------------------------------------|
C|-40------46------40--------------40------40------46------40--40--|-40------46------40--------------40------40------46------40--40--|
C|-36--36--36--36--36--36--36--36--36--36--36--36--36--36--36--36--|-36--36--36--36--36--36--36--36--36--36--36--36--36--36--36--36--|
C|-36--36--36--36--36--36--36--36--36--36--36--36--36--36--36--36--|-36--36--36--36--36--36--36--36--36--36--36--36--36--36--36--36--|
C|-----------------------------------------------------------------|-----------------------------------------------------------------|


C|-----------------------------------------------------------------|-----------------------------------------------------------------|
C|-----------------------------------------------------------------|-----------------------------------------------------------------|
C|-40------46------40--------------40------40------46------40--40--|-40------46------40--------------40------40------46------40--40--|
C|-36--36--36--36--36--36--36--36--36--36--36--36--36--36--36--36--|-36--36--36--36--36--36--36--36--36--36--36--36--36--36--36--36--|
C|-36--36--36--36--36--36--36--36--36--36--36--36--36--36--36--36--|-36--36--36--36--36--36--36--36--36--36--36--36--36--36--36--36--|
C|-----------------------------------------------------------------|-----------------------------------------------------------------|


C|-----------------------------------------------------------------|-----------------------------------------------------------------|
C|-----------------------------------------------------------------|-----------------------------------------------------------------|
C|-40------46------40--------------40------40------46------40--40--|-40------46------40--------------40------40------46------40--40--|
C|-36--36--36--36--36--36--36--36--36--36--36--36--36--36--36--36--|-36--36--36--36--36--36--36--36--36--36--36--36--36--36--36--36--|
C|-36--36--36--36--36--36--36--36--36--36--36--36--36--36--36--36--|-36--36--36--36--36--36--36--36--36--36--36--36--36--36--36--36--|
C|-----------------------------------------------------------------|-----------------------------------------------------------------|


C|-----------------------------------------------------------------|-----------------------------------------------------------------|
C|-----------------------------------------------------------------|-----------------------------------------------------------------|
C|-40------46------40--------------40------40------46------40--40--|-40------46------40--------------40------40------46------40--40--|
C|-36--36--36--36--36--36--36--36--36--36--36--36--36--36--36--36--|-36--36--36--36--36--36--36--36--36--36--36--36--36--36--36--36--|
C|-36--36--36--36--36--36--36--36--36--36--36--36--36--36--36--36--|-36--36--36--36--36--36--36--36--36--36--36--36--36--36--36--36--|
C|-----------------------------------------------------------------|-----------------------------------------------------------------|


C|-----------------------------------------------------------------|-----------------------------------------------------------------|
C|-----------------------------------------------------------------|-----------------------------------------------------------------|
C|-40------46------40--------------40------40------46------40--40--|-40------46------40--------------40------40------46------40--40--|
C|-36--36--36--36--36--36--36--36--36--36--36--36--36--36--36--36--|-36--36--36--36--36--36--36--36--36--36--36--36--36--36--36--36--|
C|-36--36--36--36--36--36--36--36--36--36--36--36--36--36--36--36--|-36--36--36--36--36--36--36--36--36--36--36--36--36--36--36--36--|
C|-----------------------------------------------------------------|-----------------------------------------------------------------|


C|-----------------------------------------------------------------|-----------------------------------------------------------------|
C|-----------------------------------------------------------------|-----------------------------------------------------------------|
C|-40------46------40--------------40------40------46------40--40--|-40------46------40--------------40------40------46------40--40--|
C|-36--36--36--36--36--36--36--36--36--36--36--36--36--36--36--36--|-36--36--36--36--36--36--36--36--36--36--36--36--36--36--36--36--|
C|-36--36--36--36--36--36--36--36--36--36--36--36--36--36--36--36--|-36--36--36--36--36--36--36--36--36--36--36--36--36--36--36--36--|
C|-----------------------------------------------------------------|-----------------------------------------------------------------|


C|-----------------------------------------------------------------|-----------------------------------------------------------------|
C|-----------------------------------------------------------------|-----------------------------------------------------------------|
C|-40------46------40--------------40------40------46------40--40--|-40------46------40--------------40------40------46------40--40--|
C|-36--36--36--36--36--36--36--36--36--36--36--36--36--36--36--36--|-36--36--36--36--36--36--36--36--36--36--36--36--36--36--36--36--|
C|-36--36--36--36--36--36--36--36--36--36--36--36--36--36--36--36--|-36--36--36--36--36--36--36--36--36--36--36--36--36--36--36--36--|
C|-----------------------------------------------------------------|-----------------------------------------------------------------|


C|-----------------------------------------------------------------|-36--36--36--36--36--36--36--36--36--36--36--36--36--36--36--36--|
C|-----------------------------------------------------------------|-36--36--36--36--36--36--36--36--36--36--36--36--36--36--36--36--|
C|-40------46------40--------------40------40------46------40--40--|-40------55------40------40------55------40------40------55------|
C|-36--36--36--36--36--36--36--36--36--36--36--36--36--36--36--36--|-----------------------------------------------------------------|
C|-36--36--36--36--36--36--36--36--36--36--36--36--36--36--36--36--|-----------------------------------------------------------------|
C|-----------------------------------------------------------------|-----------------------------------------------------------------|


C|-36--36--36--36--36--36--36--36--36--36--36--36--36--36--36--36--|-36--36--36--36--36--36--36--36--36--36--36--36--36--36--36--36--|
C|-36--36--36--36--36--36--36--36--36--36--36--36--36--36--36--36--|-36--36--36--36--36--36--36--36--36--36--36--36--36--36--36--36--|
C|-40------55------40------40------55------40------40------55------|-40------55------40------40------55------40------40------55------|
C|-----------------------------------------------------------------|-----------------------------------------------------------------|
C|-----------------------------------------------------------------|-----------------------------------------------------------------|
C|-----------------------------------------------------------------|-----------------------------------------------------------------|


C|-36--36--36--36--36--36--36--36--36--36--36--36--36--36--36--36--|-36--36--36--36--36--36--36--36--36--36--36--36--36--36--36--36--|
C|-36--36--36--36--36--36--36--36--36--36--36--36--36--36--36--36--|-36--36--36--36--36--36--36--36--36--36--36--36--36--36--36--36--|
C|-40------55------40------40------55------40------40------55------|-40------55------40------40------55------40------40------55------|
C|-----------------------------------------------------------------|-----------------------------------------------------------------|
C|-----------------------------------------------------------------|-----------------------------------------------------------------|
C|-----------------------------------------------------------------|-----------------------------------------------------------------|


C|-36--36--36--36--36--36--36--36--36--36--36--36--36--36--36--36--|-36--36--36--36--36--36--36--36--36--36--36--36--36--36--36--36--|
C|-36--36--36--36--36--36--36--36--36--36--36--36--36--36--36--36--|-36--36--36--36--36--36--36--36--36--36--36--36--36--36--36--36--|
C|-40------55------40------40------55------40------40------55------|-40------55------40------40------55------40------40------55------|
C|-----------------------------------------------------------------|-----------------------------------------------------------------|
C|-----------------------------------------------------------------|-----------------------------------------------------------------|
C|-----------------------------------------------------------------|-----------------------------------------------------------------|


C|-36--36--36--36--36--36--36--36--36--36--36--36--36--36--36--36--|-36--36--36--36--36--36--36--36--36--36--36--36--36--36--36--36--|
C|-36--36--36--36--36--36--36--36--36--36--36--36--36--36--36--36--|-36--36--36--36--36--36--36--36--36--36--36--36--36--36--36--36--|
C|-40------55------40------40------55------40------40------55------|-40------55------40------40------55------40------40------55------|
C|-----------------------------------------------------------------|-----------------------------------------------------------------|
C|-----------------------------------------------------------------|-----------------------------------------------------------------|
C|-----------------------------------------------------------------|-----------------------------------------------------------------|


C|-36--36--36--36--36--36--36--36--36--36--36--36--36--36--36--36--|-36--36--36--36--36--36--36--36--36--36--36--36--36--36--36--36--|
C|-36--36--36--36--36--36--36--36--36--36--36--36--36--36--36--36--|-36--36--36--36--36--36--36--36--36--36--36--36--36--36--36--36--|
C|-40------55------40------40------55------40------40------55------|-40------55------40------40------55------40------40------55------|
C|-----------------------------------------------------------------|-----------------------------------------------------------------|
C|-----------------------------------------------------------------|-----------------------------------------------------------------|
C|-----------------------------------------------------------------|-----------------------------------------------------------------|


C|-36--36--36--36--36--36--36--36--36--36--36--36--36--36--36--36--|-36--36--36--36--36--36--36--36--36--36--36--36--36--36--36--36--|
C|-36--36--36--36--36--36--36--36--36--36--36--36--36--36--36--36--|-36--36--36--36--36--36--36--36--36--36--36--36--36--36--36--36--|
C|-40------55------40------40------55------40------40------55------|-40------55------40------40------55------40------40------55------|
C|-----------------------------------------------------------------|-----------------------------------------------------------------|
C|-----------------------------------------------------------------|-----------------------------------------------------------------|
C|-----------------------------------------------------------------|-----------------------------------------------------------------|


C|-36--36--36--36--36--36--36--36--36--36--36--36--36--36--36--36--|-36--36--36--36--36--36--36--36--36--36--36--36--36--36--36--36--|
C|-36--36--36--36--36--36--36--36--36--36--36--36--36--36--36--36--|-36--36--36--36--36--36--36--36--36--36--36--36--36--36--36--36--|
C|-40------55------40------40------55------40------40------55------|-40------55------40------40------55------40------40------55------|
C|-----------------------------------------------------------------|-----------------------------------------------------------------|
C|-----------------------------------------------------------------|-----------------------------------------------------------------|
C|-----------------------------------------------------------------|-----------------------------------------------------------------|


C|-36--36--36--36--36--36--36--36--36--36--36--36--36--36--36--36--|-36--36--36--36--36--36--36--36--36--36--36--36--36--36--36--36--|
C|-36--36--36--36--36--36--36--36--36--36--36--36--36--36--36--36--|-36--36--36--36--36--36--36--36--36--36--36--36--36--36--36--36--|
C|-40------55------40------40------40--40--40------40------40--40--|-40------55------40------40------55------40------40------55------|
C|-----------------------------------------------------------------|-----------------------------------------------------------------|
C|-----------------------------------------------------------------|-----------------------------------------------------------------|
C|-----------------------------------------------------------------|-----------------------------------------------------------------|


C|-36--36--36--36--36--36--36--36--36--36--36--36--36--36--36--36--|-36--36--36--36--36--36--36--36--36--36--36--36--36--36--36--36--|
C|-36--36--36--36--36--36--36--36--36--36--36--36--36--36--36--36--|-36--36--36--36--36--36--36--36--36--36--36--36--36--36--36--36--|
C|-40------55------40------40------55------40------40------55------|-40------55------40------40------55------40------40------55------|
C|-----------------------------------------------------------------|-----------------------------------------------------------------|
C|-----------------------------------------------------------------|-----------------------------------------------------------------|
C|-----------------------------------------------------------------|-----------------------------------------------------------------|


C|-36--36--36--36--36--36--36--36--36--36--36--36--36--36--36--36--|-36--36--36--36--36--36--36--36--36--36--36--36--36--36--36--36--|
C|-36--36--36--36--36--36--36--36--36--36--36--36--36--36--36--36--|-36--36--36--36--36--36--36--36--36--36--36--36--36--36--36--36--|
C|-40------55------40------40------55------40------40------55------|-40------55------40------40------55------40------40------55------|
C|-----------------------------------------------------------------|-----------------------------------------------------------------|
C|-----------------------------------------------------------------|-----------------------------------------------------------------|
C|-----------------------------------------------------------------|-----------------------------------------------------------------|


C|-36--36--36--36--36--36--36--36--36--36--36--36--36--36--36--36--|-36--36--36--36--36--36--36--36--36--36--36--36--36--36--36--36--|
C|-36--36--36--36--36--36--36--36--36--36--36--36--36--36--36--36--|-36--36--36--36--36--36--36--36--36--36--36--36--36--36--36--36--|
C|-40------55------40------40------55------40------40------55------|-40------55------40------40------55------40------40------55------|
C|-----------------------------------------------------------------|-----------------------------------------------------------------|
C|-----------------------------------------------------------------|-----------------------------------------------------------------|
C|-----------------------------------------------------------------|-----------------------------------------------------------------|


C|-36--36--36--36--36--36--36--36--36--36--36--36--36--36--36--36--|-36--36--36--36--36--36--36--36--36--36--36--36--36--36--36--36--|
C|-36--36--36--36--36--36--36--36--36--36--36--36--36--36--36--36--|-36--36--36--36--36--36--36--36--36--36--36--36--36--36--36--36--|
C|-40------55------40------40------55------40------40------55------|-40------55------40------40------55------40------40------55------|
C|-----------------------------------------------------------------|-----------------------------------------------------------------|
C|-----------------------------------------------------------------|-----------------------------------------------------------------|
C|-----------------------------------------------------------------|-----------------------------------------------------------------|


C|-36--36--36--36--36--36--36--36--36--36--36--36--36--36--36--36--|-36--36--36--36--36--36--36--36--36--36--36--36--36--36--36--36--|
C|-36--36--36--36--36--36--36--36--36--36--36--36--36--36--36--36--|-36--36--36--36--36--36--36--36--36--36--36--36--36--36--36--36--|
C|-40------55------40------40------55------40------40------55------|-40------55------40------40------55------40------40------55------|
C|-----------------------------------------------------------------|-----------------------------------------------------------------|
C|-----------------------------------------------------------------|-----------------------------------------------------------------|
C|-----------------------------------------------------------------|-----------------------------------------------------------------|


C|-36--36--36--36--36--36--36--36--36--36--36--36--36--36--36--36--|-36--36--36--36--36--36--36--36--36--36--36--36--36--36--36--36--|
C|-36--36--36--36--36--36--36--36--36--36--36--36--36--36--36--36--|-36--36--36--36--36--36--36--36--36--36--36--36--36--36--36--36--|
C|-40------55------40------40------55------40------40------55------|-40------55------40------40------55------40------40------55------|
C|-----------------------------------------------------------------|-----------------------------------------------------------------|
C|-----------------------------------------------------------------|-----------------------------------------------------------------|
C|-----------------------------------------------------------------|-----------------------------------------------------------------|


C|-36--36--36--36--36--36--36--36--36--36--36--36--36--36--36--36--|-36--36--36--36--36--36--36--36--36--36--36--36--36--36--36--36--|
C|-36--36--36--36--36--36--36--36--36--36--36--36--36--36--36--36--|-36--36--36--36--36--36--36--36--36--36--36--36--36--36--36--36--|
C|-40------55------40------40------55------40------40------55------|-40------55------40------40------55------40------40------55------|
C|-----------------------------------------------------------------|-----------------------------------------------------------------|
C|-----------------------------------------------------------------|-----------------------------------------------------------------|
C|-----------------------------------------------------------------|-----------------------------------------------------------------|


C|-36--36--36--36--36--36--36--36--36--36--36--36--36--36--36--36--|-36---36---36---36---36---36---36---36---|
C|-36--36--36--36--36--36--36--36--36--36--36--36--36--36--36--36--|-36---36---36---36---36---36---36---36---|
C|-40------55------40------40------55------40------40------55------|-40--------40--------40--------40---40---|
C|-----------------------------------------------------------------|-57------------------57------------------|
C|-----------------------------------------------------------------|-----------------------------------------|
C|-----------------------------------------------------------------|-----------------------------------------|


C|-36---36---36---36---36---36---36---36---|-36---36---36---36---36---36---36---36---|
C|-36---36---36---36---36---36---36---36---|-36---36---36---36---36---36---36---36---|
C|-40--------40--------40--------40---40---|-40--------40--------40--------40---40---|
C|-57------------------57------------------|-57------------------57------------------|
C|-----------------------------------------|-----------------------------------------|
C|-----------------------------------------|-----------------------------------------|


C|-36---36---36---36---36---36---36---36---|-36---36---36---36---36---36---36---36---|
C|-36---36---36---36---36---36---36---36---|-36---36---36---36---36---36---36---36---|
C|-40--------40--------40--------40---40---|-40--------40--------40--------40---40---|
C|-57------------------57------------------|-57------------------57------------------|
C|-----------------------------------------|-----------------------------------------|
C|-----------------------------------------|-----------------------------------------|


C|-36---36---36---36---36---36---36---36---|-36---36---36---36---36---36---36---36---|
C|-36---36---36---36---36---36---36---36---|-36---36---36---36---36---36---36---36---|
C|-40--------40--------40--------40---40---|-40--------40--------40--------40---40---|
C|-57------------------57------------------|-57------------------57------------------|
C|-----------------------------------------|-----------------------------------------|
C|-----------------------------------------|-----------------------------------------|


C|-36---36---36---36---36---36---36---36---|-36---36---36---36---36---36---36---36---|
C|-36---36---36---36---36---36---36---36---|-36---36---36---36---36---36---36---36---|
C|-40--------40--------40--------40---40---|-40--------40--------40--------40---40---|
C|-57------------------57------------------|-57------------------57------------------|
C|-----------------------------------------|-----------------------------------------|
C|-----------------------------------------|-----------------------------------------|


C|-36---36---36---36---36---36---36---36---|-36---36---36---36---36---36---36---36---|
C|-36---36---36---36---36---36---36---36---|-36---36---36---36---36---36---36---36---|
C|-40--------40--------40--------40---40---|-40--------40--------40--------40---40---|
C|-57------------------57------------------|-57------------------57------------------|
C|-----------------------------------------|-----------------------------------------|
C|-----------------------------------------|-----------------------------------------|


C|-36---36---36---36---36---36---36---36---|-36---36---36---36---36---36---36---36---|
C|-36---36---36---36---36---36---36---36---|-36---36---36---36---36---36---36---36---|
C|-40--------40--------40--------40---40---|-40--------40--------40--------40---40---|
C|-57------------------57------------------|-57------------------57------------------|
C|-----------------------------------------|-----------------------------------------|
C|-----------------------------------------|-----------------------------------------|


C|-36---36---36---36---36---36---36---36---|-48--48--48---48--48---48--47---47---47--47---47--|
C|-36---36---36---36---36---36---36---36---|-48--48--48---48--48---48--47---47---47--47---47--|
C|-40--------40--------40--------40---40---|--------------------------------------------------|
C|-57------------------57------------------|--------------------------------------------------|
C|-----------------------------------------|--------------------------------------------------|
C|-----------------------------------------|--------------------------------------------------|


C|-45--45--45--45---45--43---43--43---43--43---43--43--|-40----40----40-----|--------------------------------------------------------|
C|-45--45--45--45---45--43---43--43---43--43---43--43--|-36----36----36-----|-48--48--48---47--47---47--45--45---45--43--43--43--43--|
C|-----------------------------------------------------|-46----46----57-----|-48--48--48---47--47---47--45--45---45--43--43--43--43--|
C|-----------------------------------------------------|--------------------|--------------------------------------------------------|
C|-----------------------------------------------------|--------------------|--------------------------------------------------------|
C|-----------------------------------------------------|--------------------|--------------------------------------------------------|


C|-40----40----40-----|--------------------------------------------------------|-40----40----40-----|
C|-36----36----36-----|-48--48--48---47--47---47--45--45---45--43--43--43--43--|-36----36----36-----|
C|-46----46----57-----|-48--48--48---47--47---47--45--45---45--43--43--43--43--|-46----46----57-----|
C|--------------------|--------------------------------------------------------|--------------------|
C|--------------------|--------------------------------------------------------|--------------------|
C|--------------------|--------------------------------------------------------|--------------------|


C|--------------------------------------------------------|-40----40----40-----|--------------------------------------------------------|
C|-48--48--48---47--47---47--45--45---45--43--43--43--43--|-36----36----36-----|-48--48--48---47--47---47--45--45---45--43--43--43--43--|
C|-48--48--48---47--47---47--45--45---45--43--43--43--43--|-46----46----57-----|-48--48--48---47--47---47--45--45---45--43--43--43--43--|
C|--------------------------------------------------------|--------------------|--------------------------------------------------------|
C|--------------------------------------------------------|--------------------|--------------------------------------------------------|
C|--------------------------------------------------------|--------------------|--------------------------------------------------------|


C|---------|---------|---------|---------|-46----42---42---42---42---42---42---|-46----42---42---42---42---42---42---|
C|-49------|---------|---------|---------|-------------------------------------|-------------------------------------|
C|-57------|-%-------|-%-------|-%-------|-------------------------------------|-------------------------------------|
C|-40------|-%-------|-%-------|-%-------|-------------------------------------|-------------------------------------|
C|---------|---------|---------|---------|-------------------------------------|-------------------------------------|
C|---------|---------|---------|---------|-------------------------------------|-------------------------------------|


C|-46----42---42---42---42---42---42---|-46----42---42---46---42---46---42---|-46----42---42---42---42---42---42---|
C|-------------------------------------|-------------------------------------|-------------------------------------|
C|-------------------------------------|-------------------------------------|-------------------------------------|
C|-------------------------------------|-------------------------------------|-------------------------------------|
C|-------------------------------------|-------------------------------------|-------------------------------------|
C|-------------------------------------|-------------------------------------|-------------------------------------|


C|-46----42---42---42---42---42---42---|-46----42---42---42---42---42---42---|-46----42---42---46---42---46---42---|
C|-------------------------------------|-------------------------------------|-------------------------------------|
C|-------------------------------------|-------------------------------------|-------------------------------------|
C|-------------------------------------|-------------------------------------|-------------------------------------|
C|-------------------------------------|-------------------------------------|-------------------------------------|
C|-------------------------------------|-------------------------------------|-------------------------------------|


C|-46----42---42---42---42---42---42---|-46----42---42---42---42---42---42---|-46----42---42---42---42---42---42---|
C|-------------------------------------|-------------------------------------|-------------------------------------|
C|-------------------------------------|-------------------------------------|-------------------------------------|
C|-------------------------------------|-------------------------------------|-------------------------------------|
C|-------------------------------------|-------------------------------------|-------------------------------------|
C|-------------------------------------|-------------------------------------|-------------------------------------|


C|-46----42---42---46---42---46---42---|-46----42---42---42---42---42---42---|-46----42---42---42---42---42---42---|
C|-------------------------------------|-------------------------------------|-------------------------------------|
C|-------------------------------------|-------------------------------------|-------------------------------------|
C|-------------------------------------|-------------------------------------|-------------------------------------|
C|-------------------------------------|-------------------------------------|-------------------------------------|
C|-------------------------------------|-------------------------------------|-------------------------------------|


C|-46----42---42---42---42---42---42---|-46----42---42---46---42---46---42---|-46----42---42---42---42---42---42---|
C|-------------------------------------|-------------------------------------|-------------------------------------|
C|-------------------------------------|-------------------------------------|-------------------------------------|
C|-------------------------------------|-------------------------------------|-------------------------------------|
C|-------------------------------------|-------------------------------------|-------------------------------------|
C|-------------------------------------|-------------------------------------|-------------------------------------|


C|-46----42---42---42---42---42---42---|-46----42---42---42---42---42---42---|-46----42---42---42---42---42---42---|
C|-------------------------------------|-------------------------------------|-------------------------------------|
C|-------------------------------------|-------------------------------------|-------------------------------------|
C|-------------------------------------|-------------------------------------|-------------------------------------|
C|-------------------------------------|-------------------------------------|-------------------------------------|
C|-------------------------------------|-------------------------------------|-------------------------------------|


C|-40------|---------|---------|---------|---------|---------|
C|-57------|---------|---------|---------|---------|---------|
C|---------|-%-------|-%-------|-%-------|-%-------|-%-------|
C|---------|-%-------|-%-------|-%-------|-%-------|-%-------|
C|---------|---------|---------|---------|---------|---------|
C|---------|---------|---------|---------|---------|---------|

    

Nézd meg a videót és ismerd meg a leggyorsabb utat, hogyan tanulhatod meg kedvenc számaid gitáron!