Hogyan játszd el gitáron a Unknown Artist – Mariners On The Orizon dalt?

Unknown Artist Mariners On The Orizon – GITÁR PRO TAB, KOTTA, AKKORDOK

Kotta típusa: Guit2

(Általában egy zeneszám minden kottája: gitár, szólógitár, basszusgitár, ének, zongora, dob stb. megtalálható az oldalon, de mindegyik egy külön bejegyzésben. Ha egy másik hangszer gitártabos kottáját keresed, akkor az oldal alján vagy a keresőben megtalálod. Sokszor a zenekar tagjának a neve lesz a kotta kategóriája.)

        


E|---------|---------|---------|---------|--------------------|-------------------|
B|---------|---------|---------|---------|--------------------|-------------------|
G|-%-------|-%-------|-%-------|-%-------|-9------11----12----|-7-------7----7----|
D|-%-------|-%-------|-%-------|-%-------|--------------------|-------------------|
A|---------|---------|---------|---------|--------------------|-------------------|
E|---------|---------|---------|---------|--------------------|-------------------|


E|--------------------|--------------------|--------------------|-------------------|
B|--------------------|-10-----------------|--------------------|---------8----10---|
G|-9------11----12----|--------12----11----|-9------11----12----|-11----------------|
D|--------------------|--------------------|--------------------|-------------------|
A|--------------------|--------------------|--------------------|-------------------|
E|--------------------|--------------------|--------------------|-------------------|


E|--------------------|-------------------|--------------------|-------------------|
B|-12-----13----12----|-10----------------|--------------------|-------------------|
G|--------------------|---------12---11---|-9------11----12----|-7-------7----7----|
D|--------------------|-------------------|--------------------|-------------------|
A|--------------------|-------------------|--------------------|-------------------|
E|--------------------|-------------------|--------------------|-------------------|


E|--------------------|--------------------|--------------------|-------------------|
B|--------------------|-10-----------------|--------------------|-10------12---13---|
G|-9------11----12----|--------12----11----|-9------11----12----|-------------------|
D|--------------------|--------------------|--------------------|-------------------|
A|--------------------|--------------------|--------------------|-------------------|
E|--------------------|--------------------|--------------------|-------------------|


E|--------------------|---------|---------------|---------|---------------|---------|
B|-12-----10----8-----|---------|---------------|---------|---------------|---------|
G|--------------------|-11------|-9------12-----|-7-------|-4------5------|-7-------|
D|--------------------|---------|-9------12-----|-7-------|-4------5------|-7-------|
A|--------------------|---------|-7------10-----|-5-------|-2------3------|-5-------|
E|--------------------|---------|-7------10-----|-5-------|-2------3------|-5-------|


E|---------------|---------|---------------|---------|---------------|---------|---------------|
B|---------------|---------|---------------|---------|---------------|---------|---------------|
G|-9------12-----|-7-------|-4------5------|-7-------|-9------12-----|-7-------|-4------5------|
D|-9------12-----|-7-------|-4------5------|-7-------|-9------12-----|-7-------|-4------5------|
A|-7------10-----|-5-------|-2------3------|-5-------|-7------10-----|-5-------|-2------3------|
E|-7------10-----|-5-------|-2------3------|-5-------|-7------10-----|-5-------|-2------3------|


E|---------|---------------|---------|---------------|---------|---------------|---------|
B|---------|---------------|---------|---------------|---------|---------------|---------|
G|-7-------|-9------12-----|-7-------|-4------5------|-7-------|-9------12-----|-7-------|
D|-7-------|-9------12-----|-7-------|-4------5------|-7-------|-9------12-----|-7-------|
A|-5-------|-7------10-----|-5-------|-2------3------|-5-------|-7------10-----|-5-------|
E|-5-------|-7------10-----|-5-------|-2------3------|-5-------|-7------10-----|-5-------|


E|---------------|---------|---------------------------------|---------------------------------|
B|---------------|---------|---------------------------------|---------------------------------|
G|-4------5------|-7-------|-9-----9----9----12----12---12---|-7-----7----7-----7----7----7----|
D|-4------5------|-7-------|-9-----9----9----12----12---12---|-7-----7----7-----7----7----7----|
A|-2------3------|-5-------|-7-----7----7----10----10---10---|-5-----5----5-----5----5----5----|
E|-2------3------|-5-------|---------------------------------|---------------------------------|


E|---------------------------------|---------------------------------|---------------------------------|
B|---------------------------------|---------------------------------|---------------------------------|
G|-4-----4----4----5-----5----5----|-7-----7----7-----7----7----7----|-9-----9----9----12----12---12---|
D|-4-----4----4----5-----5----5----|-7-----7----7-----7----7----7----|-9-----9----9----12----12---12---|
A|-2-----2----2----3-----3----3----|-5-----5----5-----5----5----5----|-7-----7----7----10----10---10---|
E|---------------------------------|---------------------------------|---------------------------------|


E|---------------------------------|---------------------------------|---------------------------------|
B|---------------------------------|---------------------------------|---------------------------------|
G|-7-----7----7-----7----7----7----|-4-----4----4----5-----5----5----|-7-----7----7-----7----7----7----|
D|-7-----7----7-----7----7----7----|-4-----4----4----5-----5----5----|-7-----7----7-----7----7----7----|
A|-5-----5----5-----5----5----5----|-2-----2----2----3-----3----3----|-5-----5----5-----5----5----5----|
E|---------------------------------|---------------------------------|---------------------------------|


E|---------------------------------|---------------------------------|---------------------------------|
B|---------------------------------|---------------------------------|---------------------------------|
G|-9-----9----9----12----12---12---|-7-----7----7-----7----7----7----|-4-----4----4----5-----5----5----|
D|-9-----9----9----12----12---12---|-7-----7----7-----7----7----7----|-4-----4----4----5-----5----5----|
A|-7-----7----7----10----10---10---|-5-----5----5-----5----5----5----|-2-----2----2----3-----3----3----|
E|---------------------------------|---------------------------------|---------------------------------|


E|---------------------------------|---------------------------------|---------------------------------|
B|---------------------------------|---------------------------------|---------------------------------|
G|-7-----7----7-----7----7----7----|-9-----9----9----12----12---12---|-7-----7----7-----7----7----7----|
D|-7-----7----7-----7----7----7----|-9-----9----9----12----12---12---|-7-----7----7-----7----7----7----|
A|-5-----5----5-----5----5----5----|-7-----7----7----10----10---10---|-5-----5----5-----5----5----5----|
E|---------------------------------|---------------------------------|---------------------------------|


E|---------------------------------|---------------------------------|---------------------------------|
B|---------------------------------|---------------------------------|---------------------------------|
G|-4-----4----4----5-----5----5----|-7-----7----7-----7----7----7----|-9-----9----9----12----12---12---|
D|-4-----4----4----5-----5----5----|-7-----7----7-----7----7----7----|-9-----9----9----12----12---12---|
A|-2-----2----2----3-----3----3----|-5-----5----5-----5----5----5----|-7-----7----7----10----10---10---|
E|---------------------------------|---------------------------------|---------------------------------|


E|---------------------------------|---------------------------------|---------------------------------|
B|---------------------------------|---------------------------------|---------------------------------|
G|-7-----7----7-----7----7----7----|-4-----4----4----5-----5----5----|-7-----7----7-----7----7----7----|
D|-7-----7----7-----7----7----7----|-4-----4----4----5-----5----5----|-7-----7----7-----7----7----7----|
A|-5-----5----5-----5----5----5----|-2-----2----2----3-----3----3----|-5-----5----5-----5----5----5----|
E|---------------------------------|---------------------------------|---------------------------------|


E|---------------------------------|---------------------------------|---------------------------------|
B|---------------------------------|---------------------------------|---------------------------------|
G|-9-----9----9----12----12---12---|-7-----7----7-----7----7----7----|-4-----4----4----5-----5----5----|
D|-9-----9----9----12----12---12---|-7-----7----7-----7----7----7----|-4-----4----4----5-----5----5----|
A|-7-----7----7----10----10---10---|-5-----5----5-----5----5----5----|-2-----2----2----3-----3----3----|
E|---------------------------------|---------------------------------|---------------------------------|


E|---------------------------------|---------------------------------|---------------------------------|
B|---------------------------------|---------------------------------|---------------------------------|
G|-7-----7----7-----7----7----7----|-9-----9----9----12----12---12---|-7-----7----7-----7----7----7----|
D|-7-----7----7-----7----7----7----|-9-----9----9----12----12---12---|-7-----7----7-----7----7----7----|
A|-5-----5----5-----5----5----5----|-7-----7----7----10----10---10---|-5-----5----5-----5----5----5----|
E|---------------------------------|---------------------------------|---------------------------------|


E|---------------------------------|---------------------------------|---------------------------------|
B|---------------------------------|---------------------------------|---------------------------------|
G|-4-----4----4----5-----5----5----|-7-----7----7-----7----7----7----|-9-----9----9----12----12---12---|
D|-4-----4----4----5-----5----5----|-7-----7----7-----7----7----7----|-9-----9----9----12----12---12---|
A|-2-----2----2----3-----3----3----|-5-----5----5-----5----5----5----|-7-----7----7----10----10---10---|
E|---------------------------------|---------------------------------|---------------------------------|


E|---------------------------------|---------------------------------|---------------------------------|
B|---------------------------------|---------------------------------|---------------------------------|
G|-7-----7----7-----7----7----7----|-4-----4----4----5-----5----5----|-7-----7----7-----7----7----7----|
D|-7-----7----7-----7----7----7----|-4-----4----4----5-----5----5----|-7-----7----7-----7----7----7----|
A|-5-----5----5-----5----5----5----|-2-----2----2----3-----3----3----|-5-----5----5-----5----5----5----|
E|---------------------------------|---------------------------------|---------------------------------|


E|---------------------------------|---------------------------------|---------------------------------|
B|---------------------------------|---------------------------------|---------------------------------|
G|-9-----9----9----12----12---12---|-7-----7----7-----7----7----7----|-4-----4----4----5-----5----5----|
D|-9-----9----9----12----12---12---|-7-----7----7-----7----7----7----|-4-----4----4----5-----5----5----|
A|-7-----7----7----10----10---10---|-5-----5----5-----5----5----5----|-2-----2----2----3-----3----3----|
E|---------------------------------|---------------------------------|---------------------------------|


E|---------------------------------|---------------------------------|---------------------------------|
B|---------------------------------|---------------------------------|---------------------------------|
G|-7-----7----7-----7----7----7----|-9-----9----9----12----12---12---|-7-----7----7-----7----7----7----|
D|-7-----7----7-----7----7----7----|-9-----9----9----12----12---12---|-7-----7----7-----7----7----7----|
A|-5-----5----5-----5----5----5----|-7-----7----7----10----10---10---|-5-----5----5-----5----5----5----|
E|---------------------------------|---------------------------------|---------------------------------|


E|---------------------------------|---------------------------------|-2-------|-2----2----------------------|
B|---------------------------------|---------------------------------|-3-------|-3----3----3-----------------|
G|-4-----4----4----5-----5----5----|-7-----7----7-----7----7----7----|-2-------|-2----2----2----2-----2------|
D|-4-----4----4----5-----5----5----|-7-----7----7-----7----7----7----|-0-------|-0----0----0----0------------|
A|-2-----2----2----3-----3----3----|-5-----5----5-----5----5----5----|---------|-----------------------------|
E|---------------------------------|---------------------------------|---------|-----------------------------|


E|---------|---------|---------|---------|---------|-----------------------------------------|
B|---------|---------|---------|---------|---------|-----------------------------------------|
G|-%-------|-%-------|-%-------|-%-------|-%-------|-12---11----------------------------%----|
D|-%-------|-%-------|-%-------|-%-------|-%-------|-----------12---14---10---12---14---%----|
A|---------|---------|---------|---------|---------|-----------------------------------------|
E|---------|---------|---------|---------|---------|-----------------------------------------|


E|-----------------------------------------|-----------------------------------------|
B|-----------------------------------------|-----------------------------------------|
G|-12---11----------------------------%----|-12---11---------------------------------|
D|-----------12---14---10---12---14---%----|-----------14---14---14---14---12---12---|
A|-----------------------------------------|-----------------------------------------|
E|-----------------------------------------|-----------------------------------------|


E|-----------------------------------------|-----------------------------------------|
B|-----------------------------------------|-----------------------------------------|
G|------------------------------------%----|-12---11-------------11---12---14---%----|
D|-12---12---10------------------10---%----|-----------12---14------------------%----|
A|----------------12---10---12-------------|-----------------------------------------|
E|-----------------------------------------|-----------------------------------------|


E|-----------------------------------------|-----------------------------------------|
B|-----------------------------------------|-----------------------------------------|
G|-12---11-------------12---14---16---%----|-12---11---------------------------------|
D|-----------14---16------------------%----|-----------14---14---16---16---17---17---|
A|-----------------------------------------|-----------------------------------------|
E|-----------------------------------------|-----------------------------------------|


E|-----------------------------------------|-----------------------------------------|
B|-----------------------------------------|-----------------------------------------|
G|------------------------------------%----|-12---11----------------------------%----|
D|-19---17---16---17---19---17---16---%----|-----------12---14---10---12---14---%----|
A|-----------------------------------------|-----------------------------------------|
E|-----------------------------------------|-----------------------------------------|


E|-----------------------------------------|-----------------------------------------|
B|-----------------------------------------|-----------------------------------------|
G|-12---11----------------------------%----|-12---11---------------------------------|
D|-----------12---14---10---12---14---%----|-----------14---14---14---14---12---12---|
A|-----------------------------------------|-----------------------------------------|
E|-----------------------------------------|-----------------------------------------|


E|-----------------------------------------|---------------|---------|---------|--------------------|
B|-----------------------------------------|---------------|---------|---------|--------------------|
G|------------------------------------%----|-9-------12----|-7-------|-5-------|-4-----5-----7------|
D|-12---12---10------------------10---%----|-9-------12----|-7-------|-5-------|-4-----5-----7------|
A|----------------12---10---12-------------|-7-------10----|-5-------|-3-------|-2-----3-----5------|
E|-----------------------------------------|---------------|---------|---------|--------------------|


E|---------------|---------|---------|--------------------|---------------|---------|
B|---------------|---------|---------|--------------------|---------------|---------|
G|-9-------12----|-7-------|-5-------|-4-----5-----7------|-9-------12----|-7-------|
D|-9-------12----|-7-------|-5-------|-4-----5-----7------|-9-------12----|-7-------|
A|-7-------10----|-5-------|-3-------|-2-----3-----5------|-7-------10----|-5-------|
E|---------------|---------|---------|--------------------|---------------|---------|


E|---------|--------------------|---------------|---------|---------|--------------------|
B|---------|--------------------|---------------|---------|---------|--------------------|
G|-5-------|-4-----5-----7------|-9-------12----|-7-------|-5-------|-4-----5-----7------|
D|-5-------|-4-----5-----7------|-9-------12----|-7-------|-5-------|-4-----5-----7------|
A|-3-------|-2-----3-----5------|-7-------10----|-5-------|-3-------|-2-----3-----5------|
E|---------|--------------------|---------------|---------|---------|--------------------|


E|---------------|---------|---------|--------------------|-----------------------------------------|
B|---------------|---------|---------|--------------------|-----------------------------------------|
G|-9-------12----|-7-------|-5-------|-4-----5-----7------|-12---11----------------------------%----|
D|-9-------12----|-7-------|-5-------|-4-----5-----7------|-----------12---14---10---12---14---%----|
A|-7-------10----|-5-------|-3-------|-2-----3-----5------|-----------------------------------------|
E|---------------|---------|---------|--------------------|-----------------------------------------|


E|-----------------------------------------|-----------------------------------------|
B|-----------------------------------------|-----------------------------------------|
G|-12---11----------------------------%----|-12---11---------------------------------|
D|-----------12---14---10---12---14---%----|-----------14---14---14---14---12---12---|
A|-----------------------------------------|-----------------------------------------|
E|-----------------------------------------|-----------------------------------------|


E|-----------------------------------------|-----------------------------------------|
B|-----------------------------------------|-----------------------------------------|
G|------------------------------------%----|-12---11----------------------------%----|
D|-12---12---10------------------10---%----|-----------12---14---10---12---14---%----|
A|----------------12---10---12-------------|-----------------------------------------|
E|-----------------------------------------|-----------------------------------------|


E|-----------------------------------------|-----------------------------------------|
B|-----------------------------------------|-----------------------------------------|
G|-12---11----------------------------%----|-12---11---------------------------------|
D|-----------12---14---10---12---14---%----|-----------14---14---14---14---12---12---|
A|-----------------------------------------|-----------------------------------------|
E|-----------------------------------------|-----------------------------------------|


E|-----------------------------------------|-----------------------------------------|
B|-----------------------------------------|-----------------------------------------|
G|------------------------------------%----|-12---11-------------11---12---14---%----|
D|-12---12---10------------------10---%----|-----------12---14------------------%----|
A|----------------12---10---12-------------|-----------------------------------------|
E|-----------------------------------------|-----------------------------------------|


E|-----------------------------------------|-----------------------------------------|
B|-----------------------------------------|-----------------------------------------|
G|-12---11-------------12---14---16---%----|-12---11---------------------------------|
D|-----------14---16------------------%----|-----------14---14---16---16---17---17---|
A|-----------------------------------------|-----------------------------------------|
E|-----------------------------------------|-----------------------------------------|


E|-----------------------------------------|-----------------------------------------|
B|-----------------------------------------|-----------------------------------------|
G|------------------------------------%----|-12---11----------------------------%----|
D|-19---17---16---17---19---17---16---%----|-----------12---14---10---12---14---%----|
A|-----------------------------------------|-----------------------------------------|
E|-----------------------------------------|-----------------------------------------|


E|-----------------------------------------|-----------------------------------------|
B|-----------------------------------------|-----------------------------------------|
G|-12---11----------------------------%----|-12---11---------------------------------|
D|-----------12---14---10---12---14---%----|-----------14---14---14---14---12---12---|
A|-----------------------------------------|-----------------------------------------|
E|-----------------------------------------|-----------------------------------------|


E|-----------------------------------------|---------|---------|---------|---------------|
B|-----------------------------------------|---------|---------|---------|---------------|
G|------------------------------------%----|-9-------|-7-------|-4-------|-5------7------|
D|-12---12---10------------------10---%----|-9-------|-7-------|-4-------|-5------7------|
A|----------------12---10---12-------------|-7-------|-5-------|-2-------|-3------5------|
E|-----------------------------------------|---------|---------|---------|---------------|


E|---------|---------|---------|---------------|---------|---------|---------|---------------|
B|---------|---------|---------|---------------|---------|---------|---------|---------------|
G|-9-------|-7-------|-4-------|-5------7------|-9-------|-7-------|-4-------|-5------7------|
D|-9-------|-7-------|-4-------|-5------7------|-9-------|-7-------|-4-------|-5------7------|
A|-7-------|-5-------|-2-------|-3------5------|-7-------|-5-------|-2-------|-3------5------|
E|---------|---------|---------|---------------|---------|---------|---------|---------------|


E|---------|---------|---------|---------------|-15----15------|-15------|-12----13----10-----|
B|---------|---------|---------|---------------|---------------|---------|--------------------|
G|-9-------|-7-------|-4-------|-5------7------|---------------|---------|--------------------|
D|-9-------|-7-------|-4-------|-5------7------|---------------|---------|--------------------|
A|-7-------|-5-------|-2-------|-3------5------|---------------|---------|--------------------|
E|---------|---------|---------|---------------|---------------|---------|--------------------|


E|-8---------------10-----|-10----------8-----------------------|----------------------------|
B|-------11---10----------|-------10----------10----11----8-----|----------------------------|
G|------------------------|-------------------------------------|-10--------------------7----|
D|------------------------|-------------------------------------|--------7----8----10--------|
A|------------------------|-------------------------------------|----------------------------|
E|------------------------|-------------------------------------|----------------------------|


E|---------------------------------------|-------------------|-------------------------------------|
B|-------------------11---10--8----10----|-5----6------------|--------------------------------8----|
G|-9-----10--9---10----------------------|-----------7-------|---------------------9----10---------|
D|---------------------------------------|-------------------|-----------8----10-------------------|
A|---------------------------------------|-------------------|-8----10-----------------------------|
E|---------------------------------------|-------------------|-------------------------------------|


E|---------------------10---8----10---|-13--12--10----13--12--10----------------|--------------------|
B|-10--11--10----11-------------------|-----------------------------11----10----|-13-----------------|
G|------------------------------------|-----------------------------------------|-------12----10-----|
D|------------------------------------|-----------------------------------------|--------------------|
A|------------------------------------|-----------------------------------------|--------------------|
E|------------------------------------|-----------------------------------------|--------------------|


E|----------------------|-------------------|-----------------------|---------|--------------------|
B|----------------------|-------------------|--------8--------------|-10------|--------------------|
G|-7-------7----10--9---|-7-------10---9----|-7-------------10--9---|---------|-9-----7-----5------|
D|----------------------|-------------------|-----------------------|---------|-9-----7-----5------|
A|----------------------|-------------------|-----------------------|---------|-7-----5-----3------|
E|----------------------|-------------------|-----------------------|---------|--------------------|


E|---------|--------------------|---------|--------------------|---------|--------------------|
B|---------|--------------------|---------|--------------------|---------|--------------------|
G|-5-------|-9-----7-----5------|-5-------|-7-----5-----4------|-4-------|-5-----4-----2------|
D|-5-------|-9-----7-----5------|-5-------|-7-----5-----4------|-4-------|-5-----4-----2------|
A|-3-------|-7-----5-----3------|-3-------|-5-----3-----2------|-2-------|-3-----2-----0------|
E|---------|--------------------|---------|--------------------|---------|--------------------|


E|---------|---------|---------|---------|---------|---------|---------|---------|---------|
B|---------|---------|---------|---------|---------|---------|---------|---------|---------|
G|-2-------|---------|---------|---------|---------|-%-------|-%-------|-%-------|-%-------|
D|-2-------|-5-------|-5-------|-5-------|-5-------|-%-------|-%-------|-%-------|-%-------|
A|-0-------|-5-------|-5-------|-5-------|-5-------|---------|---------|---------|---------|
E|---------|-3-------|-3-------|-3-------|-3-------|---------|---------|---------|---------|


E|--------------------|-------------------|--------------------|--------------------|
B|--------------------|-------------------|--------------------|-10-----------------|
G|-9------11----12----|-7-------7----7----|-9------11----12----|--------12----11----|
D|--------------------|-------------------|--------------------|--------------------|
A|--------------------|-------------------|--------------------|--------------------|
E|--------------------|-------------------|--------------------|--------------------|


E|--------------------|-------------------|--------------------|-------------------|
B|--------------------|---------8----10---|-12-----13----12----|-10----------------|
G|-9------11----12----|-11----------------|--------------------|---------12---11---|
D|--------------------|-------------------|--------------------|-------------------|
A|--------------------|-------------------|--------------------|-------------------|
E|--------------------|-------------------|--------------------|-------------------|


E|--------------------|-------------------|--------------------|--------------------|
B|--------------------|-------------------|--------------------|-10-----------------|
G|-9------11----12----|-7-------7----7----|-9------11----12----|--------12----11----|
D|--------------------|-------------------|--------------------|--------------------|
A|--------------------|-------------------|--------------------|--------------------|
E|--------------------|-------------------|--------------------|--------------------|


E|--------------------|-------------------|--------------------|---------|---------|
B|--------------------|-10------12---13---|-12-----10----8-----|---------|---------|
G|-9------11----12----|-------------------|--------------------|-11------|-%-------|
D|--------------------|-------------------|--------------------|---------|-%-------|
A|--------------------|-------------------|--------------------|---------|---------|
E|--------------------|-------------------|--------------------|---------|---------|


E|---------|---------|---------|---------|---------|
B|---------|---------|---------|---------|---------|
G|-%-------|-%-------|-%-------|-%-------|-%-------|
D|-%-------|-%-------|-%-------|-%-------|-%-------|
A|---------|---------|---------|---------|---------|
E|---------|---------|---------|---------|---------|

    

Nézd meg a videót és ismerd meg a leggyorsabb utat, hogyan tanulhatod meg kedvenc számaid gitáron!