Hogyan játszd el gitáron a Unknown Artist – Phantom Lord dalt?

Unknown Artist Phantom Lord – GITÁR PRO TAB, KOTTA, AKKORDOK

Kotta típusa: Lars

(Általában egy zeneszám minden kottája: gitár, szólógitár, basszusgitár, ének, zongora, dob stb. megtalálható az oldalon, de mindegyik egy külön bejegyzésben. Ha egy másik hangszer gitártabos kottáját keresed, akkor az oldal alján vagy a keresőben megtalálod. Sokszor a zenekar tagjának a neve lesz a kotta kategóriája.)

        


C|---------|---------------------------------|-------------------------------------|
C|---------|---------------------------------|-------------------------------------|
C|-%-------|-51----47---47---47---47---51----|-51----47---47---47---47---51---51---|
C|-%-------|-------45---45---45---45---------|-------45---45---45---45-------------|
C|---------|---------------------------------|-------------------------------------|
C|---------|-35------------------------35----|-35------------------------35---35---|


C|---------------------------|---------------------------------|-------------------------------------|
C|---------------------------|---------------------------------|-------------------------------------|
C|-51----47---47---47---47---|-51----47---47---47---47---51----|-51----47---47---47---47---51---51---|
C|-------45---45---45---45---|-------45---45---45---45---------|-------45---45---45---45-------------|
C|---------------------------|---------------------------------|-------------------------------------|
C|-35------------------------|-35------------------------35----|-35------------------------35---35---|


C|---------|---------|---------|---------|-----------------------------------------------------------------|
C|---------|---------|---------|---------|-----------------------------------------------------------------|
C|-%-------|-%-------|-%-------|-%-------|-----------------------------------------------------------------|
C|-%-------|-%-------|-%-------|-%-------|-----------------------------------------------------------------|
C|---------|---------|---------|---------|-38--38--38--38--38--38--38--38--38--38--38--38--38--38--38--38--|
C|---------|---------|---------|---------|-----------------------------------------------------------------|


C|-----------------------------------------|-----------------------------------------|
C|-----------------------------------------|-----------------------------------------|
C|-51--------------------------------------|------------------------------------51---|
C|------46---46---46---46---46---46---46---|-46---46---46---46---46---46---46--------|
C|------38--------38--------38--------38---|------38--------38--------38--------38---|
C|-35--------35--------35--------35--------|-35--------35--------35--------35--------|


C|-----------------------------------------|-----------------------------------------|
C|-----------------------------------------|-----------------------------------------|
C|-----------------------------------------|-------------------------------51---51---|
C|-46---46---46---46---46---46---46---46---|-46---46---46---46---46---46-------------|
C|------38--------38--------38--------38---|------38--------38-------------38---38---|
C|-35--------35--------35--------35--------|-35--------35--------35---35-------------|


C|-----------------------------------------|-----------------------------------------|
C|-----------------------------------------|-----------------------------------------|
C|-51--------------------------------------|-------------------------------51---51---|
C|------46---46---46---46---46---46---46---|-46---46---46---46---46---46-------------|
C|------38--------38--------38--------38---|------38--------38-------------38---38---|
C|-35--------35--------35--------35--------|-35--------35--------35---35-------------|


C|-----------------------------------------|-----------------------------------------|
C|-----------------------------------------|-----------------------------------------|
C|-51--------------------------------------|------------------------------------51---|
C|------46---46---46---46---46---46---46---|-46---46---46---46---46---46---46--------|
C|------38--------38--------38--------38---|------38--------38--------38--------38---|
C|-35--------35--------35--------35--------|-35--------35--------35--------35--------|


C|-----------------------------------------|-----------------------------------------|
C|-----------------------------------------|-----------------------------------------|
C|-----------------------------------------|-------------------------------51---51---|
C|-46---46---46---46---46---46---46---46---|-46---46---46---46---46---46-------------|
C|------38--------38--------38--------38---|------38--------38-------------38---38---|
C|-35--------35--------35--------35--------|-35--------35--------35---35-------------|


C|-----------------------------------------|-----------------------------------------|
C|-----------------------------------------|-----------------------------------------|
C|-51--------------------------------------|-------------------------------51---51---|
C|------46---46---46---46---46---46---46---|-46---46---46---46---46---46-------------|
C|------38--------38--------38--------38---|------38--------38-------------38---38---|
C|-35--------35--------35--------35--------|-35--------35--------35---35-------------|


C|-----------------------------------------|-----------------------------------------|
C|-----------------------------------------|-----------------------------------------|
C|-51--------------------------------------|------------------------------------51---|
C|------46---46---46---46---46---46---46---|-46---46---46---46---46---46---46--------|
C|------38--------38--------38--------38---|------38--------38--------38--------38---|
C|-35--------35--------35--------35--------|-35--------35--------35--------35--------|


C|-----------------------------------------|-----------------------------------------|
C|-----------------------------------------|-----------------------------------------|
C|-----------------------------------------|-------------------------------51---51---|
C|-46---46---46---46---46---46---46---46---|-46---46---46---46---46---46-------------|
C|------38--------38--------38--------38---|------38--------38-------------38---38---|
C|-35--------35--------35--------35--------|-35--------35--------35---35-------------|


C|-----------------------------------------|-----------------------------------------|
C|-----------------------------------------|-----------------------------------------|
C|-51--------------------------------------|-51--------------------------------------|
C|------46---46---46---46---46---46---46---|------46---46---46---46---46---46---46---|
C|------38--------38--------38--------38---|------38--------38--------38--------38---|
C|-35--------35--------35--------35--------|-35--------35--------35--------35--------|


C|-----------------------------------------|-----------------------------------------|
C|-----------------------------------------|-----------------------------------------|
C|-51--------------------------------------|-51--------------------------------------|
C|------46---46---46---46---46---46---46---|------46---46---46---46---46---46---46---|
C|------38--------38--------38--------38---|------38--------38--------38--------38---|
C|-35--------35--------35--------35--------|-35--------35--------35--------35--------|


C|-----------------------------------------|-----------------------------------------|
C|-----------------------------------------|-----------------------------------------|
C|-51--------------------------------------|-51--------------------------------------|
C|------46---46---46---46---46---46---46---|------46---46---46---46---46---46---46---|
C|------38--------38--------38--------38---|------38--------38--------38--------38---|
C|-35--------35--------35--------35--------|-35--------35--------35--------35--------|


C|-----------------------------------------|-----------------------------------------|
C|-----------------------------------------|-----------------------------------------|
C|-51--------------------------------------|-51--------------------------------------|
C|------46---46---46---46---46---46---46---|------46---46---46---46---46---46---46---|
C|------38--------38--------38--------38---|------38--------38--------38--------38---|
C|-35--------35--------35--------35--------|-35--------35--------35--------35--------|


C|----------------------------------------------|---------|---------|---------|-----------------------------------------------------------------|
C|----------------------------------------------|---------|---------|---------|-----------------------------------------------------------------|
C|----------------------------------------------|-51------|-%-------|-%-------|-----------------------------------------------------------------|
C|-46------------46-----------46-----------46---|---------|-%-------|-%-------|-----------------------------------------------------------------|
C|-38------------38-----------38-----------38---|---------|---------|---------|-38--38--38--38--38--38--38--38--38--38--38--38--38--38--38--38--|
C|-------35--35-------35--35-------35--35-------|-35------|---------|---------|-----------------------------------------------------------------|


C|-----------------------------------------|-----------------------------------------|
C|-----------------------------------------|-----------------------------------------|
C|-51--------------------------------------|------------------------------------51---|
C|------46---46---46---46---46---46---46---|-46---46---46---46---46---46---46--------|
C|------38--------38--------38--------38---|------38--------38--------38--------38---|
C|-35--------35--------35--------35--------|-35--------35--------35--------35--------|


C|-----------------------------------------|-----------------------------------------|
C|-----------------------------------------|-----------------------------------------|
C|-----------------------------------------|-------------------------------51---51---|
C|-46---46---46---46---46---46---46---46---|-46---46---46---46---46---46-------------|
C|------38--------38--------38--------38---|------38--------38-------------38---38---|
C|-35--------35--------35--------35--------|-35--------35--------35---35-------------|


C|-----------------------------------------|-----------------------------------------|
C|-----------------------------------------|-----------------------------------------|
C|-51--------------------------------------|-------------------------------51---51---|
C|------46---46---46---46---46---46---46---|-46---46---46---46---46---46-------------|
C|------38--------38--------38--------38---|------38--------38-------------38---38---|
C|-35--------35--------35--------35--------|-35--------35--------35---35-------------|


C|-----------------------------------------|-----------------------------------------|
C|-----------------------------------------|-----------------------------------------|
C|-51--------------------------------------|------------------------------------51---|
C|------46---46---46---46---46---46---46---|-46---46---46---46---46---46---46--------|
C|------38--------38--------38--------38---|------38--------38--------38--------38---|
C|-35--------35--------35--------35--------|-35--------35--------35--------35--------|


C|-----------------------------------------|-----------------------------------------|
C|-----------------------------------------|-----------------------------------------|
C|-----------------------------------------|-------------------------------51---51---|
C|-46---46---46---46---46---46---46---46---|-46---46---46---46---46---46-------------|
C|------38--------38--------38--------38---|------38--------38-------------38---38---|
C|-35--------35--------35--------35--------|-35--------35--------35---35-------------|


C|-----------------------------------------|-----------------------------------------|
C|-----------------------------------------|-----------------------------------------|
C|-51--------------------------------------|-------------------------------51---51---|
C|------46---46---46---46---46---46---46---|-46---46---46---46---46---46-------------|
C|------38--------38--------38--------38---|------38--------38-------------38---38---|
C|-35--------35--------35--------35--------|-35--------35--------35---35-------------|


C|-----------------------------------------|-----------------------------------------|
C|-----------------------------------------|-----------------------------------------|
C|-51--------------------------------------|------------------------------------51---|
C|------46---46---46---46---46---46---46---|-46---46---46---46---46---46---46--------|
C|------38--------38--------38--------38---|------38--------38--------38--------38---|
C|-35--------35--------35--------35--------|-35--------35--------35--------35--------|


C|-----------------------------------------|-----------------------------------------|
C|-----------------------------------------|-----------------------------------------|
C|-----------------------------------------|-------------------------------51---51---|
C|-46---46---46---46---46---46---46---46---|-46---46---46---46---46---46-------------|
C|------38--------38--------38--------38---|------38--------38-------------38---38---|
C|-35--------35--------35--------35--------|-35--------35--------35---35-------------|


C|-----------------------------------------|-----------------------------------------|
C|-----------------------------------------|-----------------------------------------|
C|-51--------------------------------------|-51--------------------------------------|
C|------46---46---46---46---46---46---46---|------46---46---46---46---46---46---46---|
C|------38--------38--------38--------38---|------38--------38--------38--------38---|
C|-35--------35--------35--------35--------|-35--------35--------35--------35--------|


C|-----------------------------------------|-----------------------------------------|
C|-----------------------------------------|-----------------------------------------|
C|-51--------------------------------------|-51--------------------------------------|
C|------46---46---46---46---46---46---46---|------46---46---46---46---46---46---46---|
C|------38--------38--------38--------38---|------38--------38--------38--------38---|
C|-35--------35--------35--------35--------|-35--------35--------35--------35--------|


C|-----------------------------------------|-----------------------------------------|
C|-----------------------------------------|-----------------------------------------|
C|-51--------------------------------------|-51--------------------------------------|
C|------46---46---46---46---46---46---46---|------46---46---46---46---46---46---46---|
C|------38--------38--------38--------38---|------38--------38--------38--------38---|
C|-35--------35--------35--------35--------|-35--------35--------35--------35--------|


C|-----------------------------------------|-----------------------------------------|
C|-----------------------------------------|-----------------------------------------|
C|-51--------------------------------------|-51--------------------------------------|
C|------46---46---46---46---46---46---46---|------46---46---46---46---46---46---46---|
C|------38--------38--------38--------38---|------38--------38--------38--------38---|
C|-35--------35--------35--------35--------|-35--------35--------35--------35--------|


C|---------|-----------------------------------------|-----------------------------------------|
C|---------|-----------------------------------------|-----------------------------------------|
C|---------|-51--------------------------------------|-51--------------------------------------|
C|-46------|------46---46---46---46---46---46---46---|------46---46---46---46---46---46---46---|
C|-38------|------38--------38--------38--------38---|------38--------38--------38--------38---|
C|---------|-35--------35--------35--------35--------|-35--------35--------35--------35--------|


C|-----------------------------------------|-----------------------------------------|
C|-----------------------------------------|-----------------------------------------|
C|-51--------------------------------------|-51--------------------------------------|
C|------46---46---46---46---46---46---46---|------46---46---46---46---46---46---46---|
C|------38--------38--------38--------38---|------38--------38--------38--------38---|
C|-35--------35--------35--------35--------|-35--------35--------35--------35--------|


C|-----------------------------------------------------------------|-----------------------------------------------------------------|
C|-----------------------------------------------------------------|-----------------------------------------------------------------|
C|-51--51--45--45----------38--38--45--45--45--45----------38--38--|-45--45--45--45----------38--38--45--45--45--45----------38--38--|
C|-----------------------------------------------------------------|-----------------------------------------------------------------|
C|-----------------------------------------------------------------|-----------------------------------------------------------------|
C|-35--35--35--35--35--35--35--35--35--35--35--35--35--35--35--35--|-35--35--35--35--35--35--35--35--35--35--35--35--35--35--35--35--|


C|-----------------------------------------------------------------|-----------------------------------------------------------------|
C|-----------------------------------------------------------------|-----------------------------------------------------------------|
C|-45--45--45--45----------38--38--45--45--45--45----------38--38--|-45--45--45--45----------38--38--45--45--45--45----------38--38--|
C|-----------------------------------------------------------------|-----------------------------------------------------------------|
C|-----------------------------------------------------------------|-----------------------------------------------------------------|
C|-35--35--35--35--35--35--35--35--35--35--35--35--35--35--35--35--|-35--35--35--35--35--35--35--35--35--35--35--35--35--35--35--35--|


C|-----------------------------------------|-----------------------------------------|
C|-----------------------------------------|-----------------------------------------|
C|-51--------------------------------------|-51--------------------------------------|
C|------46---46---46---46---46---46---46---|------46---46---46---46---46---46---46---|
C|------38--------38--------38--------38---|------38--------38--------38--------38---|
C|-35--------35--------35--------35--------|-35--------35--------35--------35--------|


C|-----------------------------------------|-----------------------------------------|
C|-----------------------------------------|-----------------------------------------|
C|-51--------------------------------------|-51--------------------------------------|
C|------46---46---46---46---46---46---46---|------46---46---46---46---46---46---46---|
C|------38--------38--------38--------38---|------38--------38--------38--------38---|
C|-35--------35--------35--------35--------|-35--------35--------35--------35--------|


C|-----------------------------------------------------------------|-----------------------------------------------------------------|
C|-----------------------------------------------------------------|-----------------------------------------------------------------|
C|-51--51--45--45----------38--38--45--45--45--45----------38--38--|-45--45--45--45----------38--38--45--45--45--45----------38--38--|
C|-----------------------------------------------------------------|-----------------------------------------------------------------|
C|-----------------------------------------------------------------|-----------------------------------------------------------------|
C|-35--35--35--35--35--35--35--35--35--35--35--35--35--35--35--35--|-35--35--35--35--35--35--35--35--35--35--35--35--35--35--35--35--|


C|-----------------------------------------------------------------|-----------------------------------------------------------------|
C|-----------------------------------------------------------------|-----------------------------------------------------------------|
C|-45--45--45--45----------38--38--45--45--45--45----------38--38--|-45--45--45--45----------38--38----------------------------------|
C|-----------------------------------------------------------------|-----------------------------------------------------------------|
C|-----------------------------------------------------------------|---------------------------------38--38--38--38--38--38--38--38--|
C|-35--35--35--35--35--35--35--35--35--35--35--35--35--35--35--35--|-35--35--35--35--35--35--35--35----------------------------------|


C|-----------------------------------------------|----------------------------------------|
C|-----------------------------------------------|----------------------------------------|
C|-51---47--47--47---45---51---47--47--47---45---|-51---47--47--47---45---51----51---51---|
C|-----------------------------------------------|----------------------------------------|
C|-----------------------------------------------|----------------------------------------|
C|-35---------------------35---------------------|-35---------------------35----35---35---|


C|-------------------------------------------------------------------|-----------------------------------------------------------------------|
C|-------------------------------------------------------------------|-----------------------------------------------------------------------|
C|-51----------------------------------------------------------------|-51--------------------------------------------------------------------|
C|-----46--46--46--46--46--46--46--46--46--46--46--46--46--47-47-45--|-----46--46--46--46--46--46--46--46--46--47-47-47--45-45-45--43-43-43--|
C|-----------------38------------------------------38--38------------|-----------------38--------------38--38--------------------------------|
C|-35--35--35--35--------------35--35----------35--------------------|-35--35--35--35--------------35----------------------------------------|


C|--------------------------------------------------------------|-----------------------------------------------------------------|
C|--------------------------------------------------------------|-----------------------------------------------------------------|
C|-51----------------------------------------------51--51---51--|-51--------------------------------------------------------------|
C|-----46--46--46--46--46--46--46--46--46--46--46---------------|-----46--46--46--46--46--46--46----------------------47--45--43--|
C|-----------------38------------------------------38-----------|-----------------38--------------38------38------38--------------|
C|-35----------35--------------35--35----------35------35---35--|-35----------35--------------35------35------35------------------|


C|-------------------------------------------------------------------|-----------------------------------------------------------------------------|
C|-------------------------------------------------------------------|-----------------------------------------------------------------------------|
C|-51----------------------------------------------------------------|-51--------------------------------------------------------------------------|
C|-----46--46--46--46--46--46--46--46--46--46--46--46--46--47-47-45--|-----46--46--46--46--46--46--46--46--46--47-47-47-47-45-45-45-45-43-43-43-43-|
C|-----------------38------------------------------38--38------------|-----------------38--------------38--38--------------------------------------|
C|-35----------35--------------35--35----------35--------------------|-35----------35--------------35----------------------------------------------|


C|-----------------------------------------------------------------|-----------------------------------------------------------------|
C|-----------------------------------------------------------------|-----------------------------------------------------------------|
C|-51----------------------------------------------51--51--51--51--|-51--------------------------------------------------------------|
C|-----46--46--46--46--46--46--46--46--46--46--46------------------|-----46--46--46--46--46--46--46--46--46--46--46--46--46--46--46--|
C|-----------------38------------------------------38--------------|-----------------38------------------------------38--------------|
C|-35----------35--------------35--35----------35------35--35--35--|-35----------35--------------35--35----------35--------------35--|


C|-----------------------------------------------------------------|-----------------------------------------------------------------|
C|-----------------------------------------------------------------|-----------------------------------------------------------------|
C|-51--------------------------------------------------------------|-51----------51--51----------51--51----------51--51----------51--|
C|-----47--47--47--47--47--47--47--47--47--47--47--47--47--47--47--|-----------------------------------------------------------------|
C|-----45--45--45--45--45--45--45--45--45--45--45--45--45--45--45--|-----38--38--38------38--38--38------38--38--38------38--38--38--|
C|-35--------------------------------------------------------------|-35--------------35--------------35--------------35--------------|


C|-----------------------------------------------------------------|-----------------------------------------|
C|-----------------------------------------------------------------|-----------------------------------------|
C|-51----------51--51----------51--51----------51--51----------51--|-51--------------------------------------|
C|-----------------------------------------------------------------|------46---46---46---46---46---46---46---|
C|-----47--47--47------47--47--47------45--45--45------43--43--43--|------38--------38--------38--------38---|
C|-35--------------35--------------35--------------35--------------|-35--------35--------35--------35--------|


C|---------------------------------------|-----------------------------------------|
C|---------------------------------------|-----------------------------------------|
C|-51------------------51----51----51----|-51--------------------------------------|
C|------46---46---46---------------------|------46---46---46---46---46---46---46---|
C|------38--------38---------------------|------38--------38--------38--------38---|
C|-35--------35--------35----35----35----|-35--------35--------35--------35--------|


C|-----------------------------------------|-----------------------------------------|
C|-----------------------------------------|-----------------------------------------|
C|-----------------------------------------|-51--------------------------------------|
C|-46---46---46---46---46---46---46---46---|------46---46---46---46---46---46---46---|
C|------38--------38--------38--------38---|------38--------38--------38--------38---|
C|-35--------35--------35--------35--------|-35--------35--------35--------35--------|


C|---------------------------------------|-----------------------------------------|
C|---------------------------------------|-----------------------------------------|
C|-51------------------51----51----51----|-51--------------------------------------|
C|------46---46---46---------------------|------46---46---46---46---46---46---46---|
C|------38--------38---------------------|------38--------38--------38--------38---|
C|-35--------35--------35----35----35----|-35--------35--------35--------35--------|


C|-----------------------------------------|-----------------------------------------|
C|-----------------------------------------|-----------------------------------------|
C|-----------------------------------------|-51--------------------------------------|
C|-46---46---46---46---46---46---46---46---|------46---46---46---46---46---46---46---|
C|------38--------38--------38--------38---|------38--------38--------38--------38---|
C|-35--------35--------35--------35--------|-35--------35--------35--------35--------|


C|---------------------------------------|-----------------------------------------|
C|---------------------------------------|-----------------------------------------|
C|-51------------------51----51----51----|-51--------------------------------------|
C|------46---46---46---------------------|------46---46---46---46---46---46---46---|
C|------38--------38---------------------|------38--------38--------38--------38---|
C|-35--------35--------35----35----35----|-35--------35--------35--------35--------|


C|-----------------------------------------|-----------------------------------------|
C|-----------------------------------------|-----------------------------------------|
C|-----------------------------------------|-51--------------------------------------|
C|-46---46---46---46---46---46---46---46---|------46---46---46---46---46---46---46---|
C|------38--------38--------38--------38---|------38--------38--------38--------38---|
C|-35--------35--------35--------35--------|-35--------35--------35--------35--------|


C|---------------------------------------|-----------------------------------------|
C|---------------------------------------|-----------------------------------------|
C|-51------------------51----51----51----|-51--------------------------------------|
C|------46---46---46---------------------|------46---46---46---46---46---46---46---|
C|------38--------38---------------------|------38--------38--------38--------38---|
C|-35--------35--------35----35----35----|-35--------35--------35--------35--------|


C|-----------------------------------------|---------|-----------------------------------------|
C|-----------------------------------------|---------|-----------------------------------------|
C|-----------------------------------------|-51------|-----------------------------------------|
C|-46---46---46---46---46---46---46---46---|---------|-----------47---45--------45---43--------|
C|------38--------38--------38--------38---|---------|------38-------------38-------------38---|
C|-35--------35--------35--------35--------|-35------|-35--------------------------------------|


C|-----------------------------------------|-----------------------------------------|
C|-----------------------------------------|-----------------------------------------|
C|-51--------------------------------------|------------------------------------51---|
C|------46---46---46---46---46---46---46---|-46---46---46---46---46---46---46--------|
C|------38--------38--------38--------38---|------38--------38--------38--------38---|
C|-35--------35--------35--------35--------|-35--------35--------35--------35--------|


C|-----------------------------------------|-----------------------------------------|
C|-----------------------------------------|-----------------------------------------|
C|-----------------------------------------|-------------------------------51---51---|
C|-46---46---46---46---46---46---46---46---|-46---46---46---46---46---46-------------|
C|------38--------38--------38--------38---|------38--------38-------------38---38---|
C|-35--------35--------35--------35--------|-35--------35--------35---35-------------|


C|-----------------------------------------|-----------------------------------------|
C|-----------------------------------------|-----------------------------------------|
C|-51--------------------------------------|-------------------------------51---51---|
C|------46---46---46---46---46---46---46---|-46---46---46---46---46---46-------------|
C|------38--------38--------38--------38---|------38--------38-------------38---38---|
C|-35--------35--------35--------35--------|-35--------35--------35---35-------------|


C|-----------------------------------------|-----------------------------------------|
C|-----------------------------------------|-----------------------------------------|
C|-51--------------------------------------|------------------------------------51---|
C|------46---46---46---46---46---46---46---|-46---46---46---46---46---46---46--------|
C|------38--------38--------38--------38---|------38--------38--------38--------38---|
C|-35--------35--------35--------35--------|-35--------35--------35--------35--------|


C|-----------------------------------------|-----------------------------------------|
C|-----------------------------------------|-----------------------------------------|
C|-----------------------------------------|-------------------------------51---51---|
C|-46---46---46---46---46---46---46---46---|-46---46---46---46---46---46-------------|
C|------38--------38--------38--------38---|------38--------38-------------38---38---|
C|-35--------35--------35--------35--------|-35--------35--------35---35-------------|


C|-----------------------------------------|-----------------------------------------|
C|-----------------------------------------|-----------------------------------------|
C|-51--------------------------------------|-------------------------------51---51---|
C|------46---46---46---46---46---46---46---|-46---46---46---46---46---46-------------|
C|------38--------38--------38--------38---|------38--------38-------------38---38---|
C|-35--------35--------35--------35--------|-35--------35--------35---35-------------|


C|-----------------------------------------|-----------------------------------------|
C|-----------------------------------------|-----------------------------------------|
C|-51--------------------------------------|------------------------------------51---|
C|------46---46---46---46---46---46---46---|-46---46---46---46---46---46---46--------|
C|------38--------38--------38--------38---|------38--------38--------38--------38---|
C|-35--------35--------35--------35--------|-35--------35--------35--------35--------|


C|-----------------------------------------|-----------------------------------------|
C|-----------------------------------------|-----------------------------------------|
C|-----------------------------------------|-------------------------------51---51---|
C|-46---46---46---46---46---46---46---46---|-46---46---46---46---46---46-------------|
C|------38--------38--------38--------38---|------38--------38-------------38---38---|
C|-35--------35--------35--------35--------|-35--------35--------35---35-------------|


C|-----------------------------------------|-----------------------------------------|
C|-----------------------------------------|-----------------------------------------|
C|-51--------------------------------------|-51--------------------------------------|
C|------46---46---46---46---46---46---46---|------46---46---46---46---46---46---46---|
C|------38--------38--------38--------38---|------38--------38--------38--------38---|
C|-35--------35--------35--------35--------|-35--------35--------35--------35--------|


C|-----------------------------------------|-----------------------------------------|
C|-----------------------------------------|-----------------------------------------|
C|-51--------------------------------------|-51--------------------------------------|
C|------46---46---46---46---46---46---46---|------46---46---46---46---46---46---46---|
C|------38--------38--------38--------38---|------38--------38--------38--------38---|
C|-35--------35--------35--------35--------|-35--------35--------35--------35--------|


C|-----------------------------------------|-----------------------------------------|
C|-----------------------------------------|-----------------------------------------|
C|-51--------------------------------------|-51--------------------------------------|
C|------46---46---46---46---46---46---46---|------46---46---46---46---46---46---46---|
C|------38--------38--------38--------38---|------38--------38--------38--------38---|
C|-35--------35--------35--------35--------|-35--------35--------35--------35--------|


C|-----------------------------------------|-----------------------------------------|
C|-----------------------------------------|-----------------------------------------|
C|-51--------------------------------------|-51--------------------------------------|
C|------46---46---46---46---46---46---46---|------46---46---46---46---46---46---46---|
C|------38--------38--------38--------38---|------38--------38--------38--------38---|
C|-35--------35--------35--------35--------|-35--------35--------35--------35--------|


C|-----------------------------------------|-----------------------------------------|
C|-----------------------------------------|-----------------------------------------|
C|-51--------------------------------------|-51--------------------------------------|
C|------46---46---46---46---46---46---46---|------46---46---46---46---46---46---46---|
C|------38--------38--------38--------38---|------38--------38--------38--------38---|
C|-35--------35--------35--------35--------|-35--------35--------35--------35--------|


C|-----------------------------------------|-----------------------------------------|
C|-----------------------------------------|-----------------------------------------|
C|-51--------------------------------------|-51--------------------------------------|
C|------46---46---46---46---46---46---46---|------46---46---46---46---46---46---46---|
C|------38--------38--------38--------38---|------38--------38--------38--------38---|
C|-35--------35--------35--------35--------|-35--------35--------35--------35--------|


C|-----------------------------------------|-----------------------------------------|
C|-----------------------------------------|-----------------------------------------|
C|-51--------------------------------------|-51--------------------------------------|
C|------46---46---46---46---46---46---46---|------46---46---46---46---46---46---46---|
C|------38--------38--------38--------38---|------38--------38--------38--------38---|
C|-35--------35--------35--------35--------|-35--------35--------35--------35--------|


C|-----------------------------------------|--------------------------------------------|
C|-----------------------------------------|--------------------------------------------|
C|-51--------------------------------------|-51-----------------------------------------|
C|------46---46---46---46---46---46---46---|------46---46---46----------------47---45---|
C|------38--------38--------38--------38---|------38--------38---38--38--38-------------|
C|-35--------35--------35--------35--------|-35--------35-------------------------------|


C|------------------------------------------|-----------------------------------------------|
C|------------------------------------------|-----------------------------------------------|
C|-51---------------------------------------|-51--------------------------------------------|
C|------46--46---46---------------47---45---|------46---46---46---46---46-------------------|
C|------38-------38--38--38--38-------------|-----------38------------------38--38--38--38--|
C|-35-------35------------------------------|-35------------------38---38-------------------|


C|-----------------------------------------------------|-------------------------|-------------------------|
C|-----------------------------------------------------|-------------------------|-------------------------|
C|-51--------------------------------------------------|-51----51----51----51----|-51----%----------51-----|
C|------46---46---46---47--47--47--47--45--45--43--43--|-------------------------|-------%-----------------|
C|-----------38----------------------------------------|-------------------------|------------------38-----|
C|-35--------------------------------------------------|-35----35----35----35----|-35----------35----------|


C|-------------------------------------|-----------------------------------------------------------------|
C|-------------------------------------|-----------------------------------------------------------------|
C|-47---47---45---45---43---43---43----|-51--51--51--51--51--51--51--51--51--51--51--51--51--51--51--51--|
C|-------------------------------------|-----------------------------------------------------------------|
C|-------------------------------------|-----------------------------------------------------------------|
C|-------------------------------------|-35--35--35--35--35--35--35--35--35--35--35--35--35--35--35--35--|


C|-----------------------------------------------------------------|-------------------------------------|
C|-----------------------------------------------------------------|-------------------------------------|
C|-51--51--51--51--51--51--51--51--51--51--51--51--51--51--51--51--|-51--51--51--51--51--51--51-----51---|
C|-----------------------------------------------------------------|-------------------------------------|
C|-----------------------------------------------------------------|-------------------------------------|
C|-35--35--35--35--35--35--35--35--35--35--35--35--35--35--35--35--|-35------35------35------35-----35---|


C|---------|--------------------|---------|
C|---------|--------------------|---------|
C|-%-------|-51----%-----%------|-%-------|
C|-%-------|-------%-----%------|-%-------|
C|---------|--------------------|---------|
C|---------|-35-----------------|---------|

    

Nézd meg a videót és ismerd meg a leggyorsabb utat, hogyan tanulhatod meg kedvenc számaid gitáron!