Hogyan játszd el gitáron a Unknown Artist – The Call Of Ktulu dalt?

Unknown Artist The Call Of Ktulu – GITÁR PRO TAB, KOTTA, AKKORDOK

Kotta típusa: Drums

(Általában egy zeneszám minden kottája: gitár, szólógitár, basszusgitár, ének, zongora, dob stb. megtalálható az oldalon, de mindegyik egy külön bejegyzésben. Ha egy másik hangszer gitártabos kottáját keresed, akkor az oldal alján vagy a keresőben megtalálod. Sokszor a zenekar tagjának a neve lesz a kotta kategóriája.)

        


C|---------|---------|---------|---------|---------|---------|---------|---------|---------|
C|---------|---------|---------|---------|---------|---------|---------|---------|---------|
C|-%-------|-%-------|-%-------|-%-------|-%-------|-%-------|-%-------|-%-------|-%-------|
C|-%-------|-%-------|-%-------|-%-------|-%-------|-%-------|-%-------|-%-------|-%-------|
C|---------|---------|---------|---------|---------|---------|---------|---------|---------|
C|---------|---------|---------|---------|---------|---------|---------|---------|---------|


C|---------|---------|---------|---------|---------|---------|---------|---------|---------|
C|---------|---------|---------|---------|---------|---------|---------|---------|---------|
C|-%-------|-%-------|-%-------|-%-------|-%-------|-%-------|-%-------|-%-------|-%-------|
C|-%-------|-%-------|-%-------|-%-------|-%-------|-%-------|-%-------|-%-------|-%-------|
C|---------|---------|---------|---------|---------|---------|---------|---------|---------|
C|---------|---------|---------|---------|---------|---------|---------|---------|---------|


C|---------|---------|---------|---------|---------|---------|---------|---------|---------|
C|---------|---------|---------|---------|---------|---------|---------|---------|---------|
C|-%-------|-%-------|-%-------|-%-------|-%-------|-%-------|-%-------|-%-------|-%-------|
C|-%-------|-%-------|-%-------|-%-------|-%-------|-%-------|-%-------|-%-------|-%-------|
C|---------|---------|---------|---------|---------|---------|---------|---------|---------|
C|---------|---------|---------|---------|---------|---------|---------|---------|---------|


C|---------|---------|---------|---------|---------|-------------------|---------|-------------------|
C|---------|---------|---------|---------|---------|-53-----------53---|-53------|-53-----------53---|
C|-%-------|-%-------|-%-------|-%-------|-%-------|---------%---------|---------|---------%---------|
C|-%-------|-%-------|-%-------|-%-------|-%-------|---------%---------|---------|---------%---------|
C|---------|---------|---------|---------|---------|-------------------|---------|-------------------|
C|---------|---------|---------|---------|---------|-36-----------36---|-36------|-36-----------36---|


C|---------|-------------------|---------|-------------------|---------|---------------|
C|-53------|-53-----------53---|-53------|-53-----------53---|-53------|-53-----53-----|
C|---------|---------%---------|---------|---------%---------|---------|---------------|
C|---------|---------%---------|---------|---------%---------|---------|---------------|
C|---------|-------------------|---------|-------------------|---------|---------------|
C|-36------|-36-----------36---|-36------|-36-----------36---|-36------|-36-----36-----|


C|---------|---------------|---------|---------------|---------|-----------------------------------------|
C|-53------|-53-----53-----|-53------|-53-----53-----|-53------|-----------------------------------------|
C|---------|---------------|---------|---------------|---------|-----------------------------------------|
C|---------|---------------|---------|---------------|---------|-43---43---43---43---43---43---43---43---|
C|---------|---------------|---------|---------------|---------|-38---38---38---38---38---38---38---38---|
C|-36------|-36-----36-----|-36------|-36-----36-----|-36------|-----------------------------------------|


C|-------------------------------------------|-49--------------------------------------|
C|-------------------------------------------|------42---42---42---42---42---42---42---|
C|---------------------------------%---------|-----------------------------------------|
C|-43---43---43---43---43--43--43--%---------|-----------------------------------------|
C|-38---38---38---38-------------------38----|---------------------38------------------|
C|-------------------------------------------|-36-------------36------------------36---|


C|-------------------------------49----|-49------------------49------------------|-49---------------------49---------------------|
C|-42---42---42---42---42---42---------|------42---42---42--------42---42---42---|-----------------------------------------------|
C|-------------------------------------|-----------------------------------------|-----------------------------------------------|
C|-------------------------------------|-----------------------------------------|-----------------------------------------------|
C|-------------------------------38----|---------------------38------------------|------38--38--38-------------38--38--38--------|
C|-36--------36--------36---36---------|-36-------------36------------------36---|-36----------------36---36----------------36---|


C|-49--------------------------------------|--------------------------49---49----|-49------------------49------------------|
C|------42---42---42---42---42---42---42---|-42---42---42---42---42--------------|------42---42---42--------42---42---42---|
C|-----------------------------------------|-------------------------------------|-----------------------------------------|
C|-----------------------------------------|-------------------------------------|-----------------------------------------|
C|---------------------38------------------|---------------------38--------38----|---------------------38------------------|
C|-36-------------36------------------36---|-36-----------------------36---------|-36-------------36------------------36---|


C|-49---49----49---49----49----|-49--------------------------------------|--------------------------------------------|
C|-----------------------------|------42---42---42---42---42---42---42---|-42---42---42---42---42---------------------|
C|-----------------------------|-----------------------------------------|--------------------------------------------|
C|-----------------------------|-----------------------------------------|--------------------------------------------|
C|-38---38----38---38----------|---------------------38------------------|---------------------38---38--38--38--------|
C|-----------------------36----|-36-------------36------------------36---|-36------------------------------------36---|


C|-49------------------49------------------|-49--------------------------------------------|
C|------42---42---42--------42---42---42---|-------------------48---48---------------------|
C|-----------------------------------------|-----------------------------47--47------------|
C|-----------------------------------------|-------------------------------------43---43---|
C|---------------------38------------------|------38--38--38-------------------------------|
C|-36-------------36------------------36---|-36--------------------------------------------|


C|-49--------------------------------------|--------------------------49---49----|-49------------------49------------------|
C|------42---42---42---42---42---42---42---|-42---42---42---42---42--------------|------42---42---42--------42---42---42---|
C|-----------------------------------------|-------------------------------------|-----------------------------------------|
C|-----------------------------------------|-------------------------------------|-----------------------------------------|
C|---------------------38------------------|---------------------38--------38----|---------------------38------------------|
C|-36-------------36------------------36---|-36-----------------------36---------|-36-------------36------------------36---|


C|-49--------------------------49---49---49---|-49------------------49------------------|
C|-----42--42---42---42---42------------------|------42---42---42--------42---42---42---|
C|--------------------------------------------|-----------------------------------------|
C|--------------------------------------------|-----------------------------------------|
C|------------------------38------------------|---------------------38------------------|
C|-36--------------------------36---36---36---|-36-------------36------------------36---|


C|-49--------------------------------------|-49------------------49------------------|
C|------42---42---42---42---42---42---42---|------42---42---42--------42---42---42---|
C|-----------------------------------------|-----------------------------------------|
C|-----------------------------------------|-----------------------------------------|
C|-----------38---38-----------------------|---------------------38------------------|
C|-36------------------36---36---36---36---|-36-------------36------------------36---|


C|-49----------------------------------------|-49--------------------------------------|
C|--------------------48--48-----------------|------42---42---42---42---42---42---42---|
C|----------------------------47-------------|-----------------------------------------|
C|---------------------------------43--------|-----------------------------------------|
C|------38--38--38---------------------------|---------------------38------------------|
C|-36-----------------------------------36---|-36-------------36------------------36---|


C|--------------------------49---49----|-49------------------49------------------|-----------49------------------49--------|
C|-42---42---42---42---42--------------|------42---42---42--------42---42---42---|-42---42--------42---42---42--------42---|
C|-------------------------------------|-----------------------------------------|-----------------------------------------|
C|-------------------------------------|-----------------------------------------|-----------------------------------------|
C|---------------------38--------------|---------------------38------------------|-----------38------------------38--------|
C|-36-----------------------36---36----|-36-------------36------------------36---|-36------------------36------------------|


C|-49--------------------------------------|--------------------------49---49----|-49------------------49------------------|
C|------42---42---42---42---42---42---42---|-42---42---42---42---42--------------|------42---42---42--------42---42---42---|
C|-----------------------------------------|-------------------------------------|-----------------------------------------|
C|-----------------------------------------|-------------------------------------|-----------------------------------------|
C|---------------------38------------------|---------------------38--------38----|---------------------38------------------|
C|-36-------------36------------------36---|-36-----------------------36---------|-36-------------36------------------36---|


C|-49-------------------------------------|-49--------------------------------------|
C|--------------------48---48-------------|------42---42---42---42---42---42---42---|
C|------------------------------47---47---|-----------------------------------------|
C|----------------------------------------|-----------------------------------------|
C|------38--38--38------------------------|---------------------38------------------|
C|-36-------------------------------------|-36-------------36------------------36---|


C|-------------------------------49----|-49------------------49------------------|-49----------------------49---49---49---|
C|-42---42---42---42---42---42---------|------42---42---42--------42---42---42---|----------------------------------------|
C|-------------------------------------|-----------------------------------------|----------------------------------------|
C|-------------------------------------|-----------------------------------------|----------------------------------------|
C|-------------------------------38----|---------------------38------------------|-------38---38--38--38------------------|
C|-36--------36--------36---36---------|-36-------------36------------------36---|-36----------------------36---36---36---|


C|-49------------------49------------------|-------------------------------49----|-49------------------49------------------|
C|------42---42---42--------42---42---42---|-42---42---42---42---42---42---------|------42---42---42--------42---42---42---|
C|-----------------------------------------|-------------------------------------|-----------------------------------------|
C|-----------------------------------------|-------------------------------------|-----------------------------------------|
C|---------------------38------------------|-38---38--------38---38--------38----|---------------------38------------------|
C|-36-------------36------------------36---|-----------36-------------36---------|-36-------------36------------------36---|


C|-49-------------------------------------|-49--------------------------------------|
C|--------------------48---48-------------|------42---42---42---42---42---42---42---|
C|------------------------------47---47---|-----------------------------------------|
C|----------------------------------------|-----------------------------------------|
C|------38--38--38------------------------|---------------------38------------------|
C|-36-------------------------------------|-36-------------36------------------36---|


C|--------------------------49---49----|-49------------------49------------------|--------------------------49-----------49---|
C|-42---42---42---42---42--------------|------42---42---42--------42---42---42---|-42---42---42---42---42---------------------|
C|-------------------------------------|-----------------------------------------|------------------------------%---%---------|
C|-------------------------------------|-----------------------------------------|------------------------------%---%---------|
C|---------------------38--------------|---------------------38------------------|---------------------38---------------------|
C|-36-----------------------36---36----|-36-------------36------------------36---|-36-------------36--------36-----------36---|


C|-49------------------49------------------|-------------------------------49----|-49------------------49------------------|
C|------42---42---42--------42---42---42---|-42---42---42---42---42---42---------|------42---42---42--------42---42---42---|
C|-----------------------------------------|-------------------------------------|-----------------------------------------|
C|-----------------------------------------|-------------------------------------|-----------------------------------------|
C|---------------------38------------------|-------------------------------38----|---------------------38------------------|
C|-36-------------36------------------36---|-36--------36--------36---36---------|-36-------------36------------------36---|


C|-49---------------------49---------------------|-49--------------------------------------|
C|-----------------------------------------------|------42---42---42---42---42---42---42---|
C|-----------------------------------------------|-----------------------------------------|
C|-----------------------------------------------|-----------------------------------------|
C|------38--38--38-------------38--38--38--------|---------------------38------------------|
C|-36----------------36---36----------------36---|-36-------------36------------------36---|


C|-49--------------------------------------|-49------------------49------------------|
C|------42---42---42---42---42---42---42---|------42---42---42--------42---42---42---|
C|-----------------------------------------|-----------------------------------------|
C|--------------------------47---47--------|-----------------------------------------|
C|-----------38---38-----------------------|---------------------38------------------|
C|-36--------------------------------------|-36-------------36------------------36---|


C|----------------------------------------------------49----|-49--------------------------------------|
C|-48---------------48---------------48---------------------|------42---42---42---42---42---42---42---|
C|-----47------%--------47------%--------47------%----------|-----------------------------------------|
C|---------43--%------------43--%------------43--%----------|-----------------------------------------|
C|----------------------------------------------------38----|---------------------38------------------|
C|----------------------------------------------------------|-36-------------36------------------36---|


C|-----------------------------49---49---49---|-49------------------49------------------|
C|-42---42---42-------------------------------|------42---42---42--------42---42---42---|
C|--------------------------------------------|-----------------------------------------|
C|--------------------------------------------|-----------------------------------------|
C|-----------38---38--38--38------------------|---------------------38------------------|
C|-36--------------------------36---36---36---|-36-------------36------------------36---|


C|-49-------------------------------------|-49--------------------------------------|
C|--------------------48---48-------------|------42---42---42---42---42---42---42---|
C|------------------------------47---47---|-----------------------------------------|
C|----------------------------------------|-----------------------------------------|
C|------38--38--38------------------------|---------------------38------------------|
C|-36-------------------------------------|-36-------------36------------------36---|


C|-------------------------------49----|-49------------------49------------------|-------------------------------49----|
C|-42---42---42---42---42---42---------|------42---42---42--------42---42---42---|-42---42---42---42---42---42---------|
C|-------------------------------------|-----------------------------------------|-------------------------------------|
C|-------------------------------------|-----------------------------------------|-------------------------------------|
C|-----------38------------------38----|---------------------38------------------|-------------------------------------|
C|-36------------------36---36---------|-36-------------36------------------36---|-36-------------36---36--------36----|


C|-49------------------49------------------|-----------------------------49---49----|
C|------42---42---42--------42---42---42---|-42---42---42---------------------------|
C|-----------------------------------------|----------------------------------------|
C|-----------------------------------------|----------------------------------------|
C|---------------------38------------------|-----------38---38--38--38--------------|
C|-36-------------36------------------36---|-36--------------------------36---36----|


C|-49------------------49------------------|-49---------------------49---------------------|
C|------42---42---42--------42---42---42---|-----------------------------------------------|
C|-----------------------------------------|-----------------------------------------------|
C|-----------------------------------------|-----------------------------------------------|
C|---------------------38------------------|------38--38--38-------------38--38--38--------|
C|-36-------------36------------------36---|-36----------------36---36----------------36---|


C|-49--------------------------------------|-------------------------------49--------|
C|------42---42---42---42---42---42---42---|-42---42---42---42---42---42--------42---|
C|-----------------------------------------|-----------------------------------------|
C|-----------------------------------------|-----------------------------------------|
C|---------------------38------------------|-------------------------------38--------|
C|-36--------------------------------------|-36------------------36---36-------------|


C|---------------------49------------------|-----------------------------------------|
C|-42---42---42---42--------42---42---42---|-42---42---42---42---42---42---42---42---|
C|-----------------------------------------|-----------------------------------------|
C|-----------------------------------------|---------------------47---47-------------|
C|---------------------38------------------|-----------38---38-----------------------|
C|-36-------------36------------------36---|-36---------------------------------36---|


C|-49------------------49------------------|-----------------------------------------------|
C|------42---42---42--------42---42---42---|-42---42---42---42-----------------------------|
C|-----------------------------------------|-----------------------------------------------|
C|-----------------------------------------|------------------------47---47----------------|
C|---------------------38------------------|-----------38---38--38------------43--43--43---|
C|-36-------------36------------------36---|-36--------------------------------------------|


C|---------------------49------------------|----------------------------------------|
C|-42---42---42---42--------42---42---42---|-42---42---42---42---42-----------------|
C|-----------------------------------------|-47---47---47---47----------------------|
C|-----------------------------------------|----------------------------------------|
C|---------------------38------------------|---------------------38----43--43--43---|
C|-36-------------36------------------36---|-36---36---36---36----------------------|


C|-49--------------------------------------|-----------------------------------------|
C|------42---42---42---42---42---42---42---|-42---42---42---42---42---42---42---42---|
C|-----------------------------------------|-----------------------------------------|
C|-----------------------------------------|-----------------------------------------|
C|---------------------38------------------|-----------38---38--------38---38--------|
C|-36--------------------------------------|-36--------------------------------------|


C|-49------------------49------------------|------------------49----|-49--------------------------------------|
C|------42---42---42--------42---42---42---|-48---48----------------|------42---42---42---42---42---42---42---|
C|-----------------------------------------|-47---47-----%----------|-----------------------------------------|
C|-----------------------------------------|-------------%----------|-----------------------------------------|
C|---------------------38------------------|------------------38----|---------------------38------------------|
C|-36-------------36-----------------------|------------------------|-36---------------------------------36---|


C|-------------------------------49----|-49------------------49------------------|-49--------------------------------------------|
C|-42---42---42---42---42---42---------|------42---42---42--------42---42---42---|------42---42----------------------------------|
C|-------------------------------------|-----------------------------------------|-----------------------------48--48--48--------|
C|-------------------------------------|-----------------------------------------|------------------------------------------47---|
C|-------------------------------38----|---------------------38------------------|----------------38--38--38---------------------|
C|-36--------36--------36---36---------|-36-------------36------------------36---|-36--------------------------------------------|


C|-49--------------------------------------|-------------------------------49----|-49------------------49------------------|
C|------42---42---42---42---42---42---42---|-42---42---42---42---42---42---------|------42---42---42--------42---42---42---|
C|-----------------------------------------|-------------------------------------|-----------------------------------------|
C|-----------------------------------------|-------------------------------------|-----------------------------------------|
C|---------------------38------------------|-------------------------------38----|---------------------38------------------|
C|-36--------------------------------------|-36--------36--------36---36---------|-36-------------36-----------------------|


C|-49------------------49--------49----|-49--------------------------------------|-------------------------------49----|
C|------42---42---42--------42---------|------42---42---42---42---42---42---42---|-42---42---42---42---42---42---------|
C|-------------------------------------|-----------------------------------------|-------------------------------------|
C|-------------------------------------|-----------------------------------------|-------------------------------------|
C|-38------------------38--------------|---------------------38------------------|-------------------------------38----|
C|----------------36-------------36----|-36--------------------------------------|-36--------36--------36---36---------|


C|-49------------------49------------------|-49------------------49--------49----|-49--------------------------------------|
C|------42---42---42--------42---42---42---|------42---42---42--------42---------|------42---42---42---42---42---42---42---|
C|-----------------------------------------|-------------------------------------|-----------------------------------------|
C|-----------------------------------------|-------------------------------------|-----------------------------------------|
C|---------------------38------------------|-38------------------38--------------|---------------------38------------------|
C|-36-------------36-----------------------|----------------36-------------36----|-36--------------------------------------|


C|-------------------------------49----|-49------------------49------------------|-------------------------------49----|
C|-42---42---42---42---42---42---------|------42---42---42--------42---42---42---|-------------------------------------|
C|-------------------------------------|-----------------------------------------|-47---47---47---47---47---47---------|
C|-------------------------------------|-----------------------------------------|-43---43---43---43---43---43---------|
C|-------------------------------38----|---------------------38------------------|-------------------------------38----|
C|-36--------36--------36---36---------|-36-------------36-----------------------|-------------------------------------|


C|-49--------------------------------------|-------------------------------49----|-49------------------49------------------|
C|------42---42---42---42---42---42---42---|-42---42---42---42---42---42---------|------42---42---42--------42---42---42---|
C|-----------------------------------------|-------------------------------------|-----------------------------------------|
C|-----------------------------------------|-------------------------------------|-----------------------------------------|
C|---------------------38------------------|-------------------------------38----|---------------------38------------------|
C|-36-------------36-----------------------|-36--------36--------36---36---------|-36-------------36-----------------------|


C|-49-----------------------------------------|-49--------------------------------------|
C|------42---42---42--------------------------|------42---42---42---42---42---42---42---|
C|--------------------------------------------|-----------------------------------------|
C|--------------------------47--47--47--------|-----------------------------------------|
C|-38------------------38----------------38---|---------------------38------------------|
C|--------------------------------------------|-36-------------36------------------36---|


C|-------------------------------49----|-49------------------49------------------|----------------------------------49---|
C|-42---42---42---42---42---42---------|------42---42---42--------42---42--------|---------------------------------------|
C|-------------------------------------|------------------------------------50---|-50------------------------------------|
C|-------------------------------------|-----------------------------------------|-------48--48--47---47-----------------|
C|---------------------38--------------|---------------------38------------------|--------------------------45--45-------|
C|-36--------36------------------36----|-36--------------------------------------|----------------------------------36---|


C|-49--------------------------------------|-------------------------------49----|-49------------------49------------------|
C|------42---42---42---42---42---42---42---|-42---42---42---42---42---42---------|------42---42---42--------42---42---42---|
C|-----------------------------------------|-------------------------------------|-----------------------------------------|
C|-----------------------------------------|-------------------------------------|-----------------------------------------|
C|---------------------38------------------|-------------------------------38----|---------------------38------------------|
C|-36--------------------------------------|-36--------36--------36---36---------|-36-------------36-----------------------|


C|-49-----------------------49---49----|-49--------------------------------------|-----------------------------------------|
C|------42---42---42---42--------------|------42---42---42---42---42---42---42---|-42---42---42---42---42---42---42---42---|
C|-------------------------------------|-----------------------------------------|-----------------------------------------|
C|-------------------------------------|-----------------------------------------|-----------------------------------------|
C|---------------------38--------------|---------------------38------------------|-------------------------------38---38---|
C|-36-----------------------36---36----|-36--------------------------------------|-36--------36--------36---36-------------|


C|-49------------------49------------------|-49---------------------49----49----|-49--------------------------------------|
C|------42---42---42--------42---42---42---|------------------------------------|------42---42---42---42---42---42---42---|
C|-----------------------------------------|------------------------------------|-----------------------------------------|
C|-----------------------------------------|------------------------------------|-----------------------------------------|
C|---------------------38------------------|-38---38--38--38---38---------------|---------------------38------------------|
C|-36-------------36-----------------------|------------------------36----36----|-36---------------------------------36---|


C|-------------------------------49----|-49------------------49------------------|-----------------------------------------------------------|
C|-42---42---42---42---42---42---------|------42---42---42--------42---42---42---|-50--50--50--50--------------------------------------------|
C|-------------------------------------|-----------------------------------------|-----------------48--48--48--------------------------------|
C|-------------------------------------|-----------------------------------------|---------------------------------47---47-------------------|
C|---------------------38--------------|---------------------38------------------|-----------------------------38------------45--45--43--43--|
C|-36--------36------------------36----|-36-------------36-----------------------|-----------------------------------------------------------|


C|-49--------------------------------------|--------------------------49---49----|-49------------------49------------------|
C|------42---42---42---42---42---42---42---|-42---42---42---42---42--------------|------42---42---42--------42---42---42---|
C|-----------------------------------------|-------------------------------------|-----------------------------------------|
C|-----------------------------------------|-------------------------------------|-----------------------------------------|
C|---------------------38------------------|---------------------38--------------|---------------------38------------------|
C|-36--------------------------------------|-36--------36-------------36---36----|-36-------------36------------------36---|


C|-49-------------------------------------------|-49--------------------------------------|
C|--------------42-----------42-----------42----|------42---42---42---42---42---42---42---|
C|----------------------------------------------|-----------------------------------------|
C|----------------------------------------------|-----------------------------------------|
C|-38---38--38--38---38--38--38---38--38--38----|---------------------38------------------|
C|----------------------------------------------|-36--------------------------------------|


C|-----------------------------------------|-49------------------49------------------|
C|-42---42---42---42---42---42---42---42---|------42---42---42--------42---42---42---|
C|-----------------------------------------|-----------------------------------------|
C|-----------------------------------------|-----------------------------------------|
C|-----------38---38--------38---38--------|---------------------38------------------|
C|-36------------------36------------------|-36--------------------------------------|


C|-49------------------49---49---49----|-49------------------49------------------|-----------49--------------49----|
C|------42---42---42--------42---42----|------42---42---42--------42---42---42---|-42---42---------42---42---------|
C|-------------------------------------|-----------------------------------------|---------------------------------|
C|-------------------------------------|-----------------------------------------|---------------------------------|
C|---------------------38--------------|---------------------38------------------|-----------38--------------38----|
C|-36-----------------------36---36----|-36-------------36-----------------------|-36--------------36---36---------|


C|-49------------------49------------------|-49-------------------------------------49----|
C|------42---42---42--------42---42---42---|----------------------------------------------|
C|-----------------------------------------|----------------------------------------------|
C|-----------------------------------------|----------------------------------------------|
C|---------------------38------------------|-38---38--38--38--38--38--38--38---38---38----|
C|-36-------------36------------------36---|----------------------------------------------|


C|-49--------------------------------------|-------------------------------49----|-49--------------------------------------|
C|------42---42---42---42---42---42---42---|-42---42---42---42---42---42---------|------42---42---42---42---42---42---42---|
C|-----------------------------------------|-------------------------------------|-----------------------------------------|
C|-----------------------------------------|-------------------------------------|-----------------------------------------|
C|-----------38------------------38--------|-----------38------------------38----|-----------38------------------38---38---|
C|-36------------------36------------------|-36------------------36--------------|-36------------------36------------------|


C|------------------------------------49---|-49--------------------------------------|
C|-42---42---42---42---42---42---42--------|------42---42---42---42---42---42---42---|
C|-----------------------------------------|-----------------------------------------|
C|-----------------------------------------|-----------------------------------------|
C|------38---38--------38---38--------38---|-----------38------------------38--------|
C|-36-------------36-------------36--------|-36------------------36------------------|


C|-------------------------------49----|-49--------------------------------------|-----------49------------------49--------|
C|-42---42---42---42---42---42---------|------42---42---42---42---42---42---42---|-42---42--------42---42---42--------42---|
C|-------------------------------------|-----------------------------------------|-----------------------------------------|
C|-------------------------------------|-----------------------------------------|-----------------------------------------|
C|-----------38------------------38----|-----------38------------------38--------|-----------38------------------38--------|
C|-36------------------36--------------|-36------------------36------------------|-36---36-------------36---36-------------|


C|-49--------------------------------------|-----------------------------------------|
C|------42---42---42---42---42---42---42---|-42---42---42---42---42---42---42---42---|
C|-----------------------------------------|-----------------------------------------|
C|-----------------------------------------|-----------------------------------------|
C|-----------38------------------38--------|-----------38------------------38--------|
C|-36------------------36------------------|-36------------------36---36-------------|


C|-49--------------------------------------|-----------------------------------------|
C|------42---42---42---42---42---42---42---|-42---42---42---42---42---42---42---42---|
C|-----------------------------------------|-----------------------------------------|
C|-----------------------------------------|-----------------------------------------|
C|-----------38------------------38--------|-----------38------------------38--------|
C|-36------------------36------------------|-36------------------36---36-------------|


C|-49--------------------------------------|-----------------------------------------|
C|------42---42---42---42---42---42---42---|-42---42---42---42---42---42---42---42---|
C|-----------------------------------------|-----------------------------------------|
C|-----------------------------------------|-----------------------------------------|
C|-----------38------------------38--------|-----------38------------------38--------|
C|-36------------------36------------------|-36------------------36---36-------------|


C|-49----------------------------49--------|-----------49---------------------49----|
C|------42---42---42---42---42--------42---|-42---42--------------------------------|
C|-----------------------------------------|----------------------------------------|
C|-----------------------------------------|----------------------------------------|
C|-----------38------------------38--------|-----------38---38--38--38---38---38----|
C|-36------------------36------------------|-36-------------------------------------|


C|-49--------------------------------------|-----------------------------------------|
C|------42---42---42---42---42---42---42---|-42---42---42---42---42---42---42---42---|
C|-----------------------------------------|-----------------------------------------|
C|-----------------------------------------|-----------------------------------------|
C|-----------38--------38--------38--------|-----------38--------38--------38--------|
C|-36--------------------------------------|-36--------------------------------------|


C|-----------------------------------------|-----------------------------------------|
C|-42---42---42---42---42---42---42---42---|-42---42---42---42---42---42---42---42---|
C|-----------------------------------------|-----------------------------------------|
C|-----------------------------------------|-----------------------------------------|
C|-----------38--------38--------38--------|-----------38--------38--------38--------|
C|-36--------------------------------------|-36---------------------------------36---|


C|-49--------------------------------------|-----------------------------------------|
C|------42---42---42---42---42---42---42---|-42---42---42---42---42---42---42---42---|
C|-----------------------------------------|-----------------------------------------|
C|-----------------------------------------|-----------------------------------------|
C|-----------38--------38--------38--------|-----------38--------38--------38--------|
C|-36--------------------------------------|-36--------------------------------------|


C|-----------------------------------------|-----------------------------------------|
C|-42---42---42---42---42---42---42---42---|-42---42---42---42---42---42---42---42---|
C|-----------------------------------------|-----------------------------------------|
C|-----------------------------------------|-----------------------------------------|
C|-----------38--------38--------38--------|-----------38--------38--------38--------|
C|-36--------------------------------------|-36---------------------------------36---|


C|-49--------------------------------------|-----------------------------------------|
C|------42---42---42---42---42---42---42---|-42---42---42---42---42---42---42---42---|
C|-----------------------------------------|-----------------------------------------|
C|-----------------------------------------|-----------------------------------------|
C|-----------38--------38--------38--------|-----------38--------38--------38--------|
C|-36--------------------------------------|-36--------------------------------------|


C|-----------------------------------------|-----------------------------------------|
C|-42---42---42---42---42---42---42---42---|-42---42---42---42---42---42---42---42---|
C|-----------------------------------------|-----------------------------------------|
C|-----------------------------------------|-----------------------------------------|
C|-----------38--------38--------38--------|-----------38--------38--------38--------|
C|-36--------------------------------------|-36---------------------------------36---|


C|-49--------------------------------------|-----------------------------------------|
C|------42---42---42---42---42---42---42---|-42---42---42---42---42---42---42---42---|
C|-----------------------------------------|-----------------------------------------|
C|-----------------------------------------|-----------------------------------------|
C|-----------38--------38--------38--------|-----------38--------38--------38--------|
C|-36--------------------------------------|-36--------------------------------------|


C|-----------------------------------------|-49---------------------49----------------49---|
C|-42---42---42---42---42---42---42---42---|-----------------------------------------------|
C|-----------------------------------------|-----------------------------------------------|
C|-----------------------------------------|-----------------------------------------------|
C|-----------38--------38--------38--------|------38--38--38---38--------38--38--38--------|
C|-36---------------------------------36---|-36---------------------36----------------36---|


C|-49--------------------------------------|-49--------------------------------------|
C|------42---42---42---42---42---42---42---|------42---42---42---42---42---42---42---|
C|-----------------------------------------|-----------------------------------------|
C|-----------------------------------------|-----------------------------------------|
C|-38--------38--------38--------38--------|-38--------38--------38--------38--------|
C|------------------------------------36---|------------------------------------36---|


C|-49--------------------------------------|-49--------------------------------------|
C|------42---42---42---42---42---42---42---|------42---42---42---42---42---42---42---|
C|-----------------------------------------|-----------------------------------------|
C|-----------------------------------------|-----------------------------------------|
C|-38--------38--------38--------38--------|-38--------38--------38--------38--------|
C|------------------------------------36---|------------------------------------36---|


C|-49--------------------------------------|-49--------------------------------------|
C|------42---42---42---42---42---42---42---|------42---42---42---42---42---42---42---|
C|-----------------------------------------|-----------------------------------------|
C|-----------------------------------------|-----------------------------------------|
C|-38--------38--------38--------38--------|-38--------38--------38--------38--------|
C|------------------------------------36---|------------------------------------36---|


C|-49--------------------------------------------------------------|-49--------------------------------------------------------------|
C|---------42------42------42------42------42------42------42------|---------42------42------42------42------42------42------42------|
C|-----------------------------------------------------------------|-----------------------------------------------------------------|
C|-----------------------------------------------------------------|-----------------------------------------------------------------|
C|-38--------------38--------------38--------------38--------------|-38--------------38--------------38--------------38--------------|
C|-36--36--36--36--36--36--36--36--36--36--36--36--36--36--36--36--|-36--36--36--36--36--36--36--36--36--36--36--36--36--36--36--36--|


C|-49--------------------------------------------------------------|-49--------------------------------------------------------------|
C|---------42------42------42------42------42------42------42------|---------42------42------42------42------42------42------42------|
C|-----------------------------------------------------------------|-----------------------------------------------------------------|
C|-----------------------------------------------------------------|-----------------------------------------------------------------|
C|-38--------------38--------------38--------------38--------------|-38--------------38--------------38--------------38--------------|
C|-36--36--36--36--36--36--36--36--36--36--36--36--36--36--36--36--|-36--36--36--36--36--36--36--36--36--36--36--36--36--36--36--36--|


C|-49--------------------------------------------------------------|-49--------------------------------------------------------------|
C|---------42------42------42------42------42------42------42------|---------42------42------42------42------42------42------42------|
C|-----------------------------------------------------------------|-----------------------------------------------------------------|
C|-----------------------------------------------------------------|-----------------------------------------------------------------|
C|-38--------------38--------------38--------------38--------------|-38--------------38--------------38--------------38--------------|
C|-36--36--36--36--36--36--36--36--36--36--36--36--36--36--36--36--|-36--36--36--36--36--36--36--36--36--36--36--36--36--36--36--36--|


C|-49-----------49---|-49------|-49-----------49---|-49------|-49-----------49---|-49------|
C|-------------------|---------|-------------------|---------|-------------------|---------|
C|---------%---------|---------|---------%---------|---------|---------%---------|---------|
C|---------%---------|---------|---------%---------|---------|---------%---------|---------|
C|-38----------------|---------|-------------------|---------|-------------------|---------|
C|--------------36---|-36------|-36-----------36---|-36------|-36-----------36---|-36------|


C|-49-----------49---|-49------|-49------------------------------------------------------49------|
C|-------------------|---------|-----42--42--42--42--42--42--42--42--42--42--42--42--42------42--|
C|---------%---------|---------|-----------------------------------------------------------------|
C|---------%---------|---------|-----------------------------------------------------------------|
C|-------------------|---------|-----------------------------------------------------------------|
C|-36-----------36---|-36------|-36------------------------------------------------------36------|


C|-49--------------------------------------------------------------|-49------------------------------------------------------49------|
C|-----42--42--42--42--42--42--42--42--42--42--42--42--42--42--42--|-----42--42--42--42--42--42--42--42--42--42--42--42--42------42--|
C|-----------------------------------------------------------------|-----------------------------------------------------------------|
C|-----------------------------------------------------------------|-----------------------------------------------------------------|
C|-----------------------------------------------------------------|-----------------------------------------------------------------|
C|-36--------------------------------------------------------------|-36------------------------------------------------------36------|


C|-49--------------------------------------------------------------|-49------------------------------------------------------49------|
C|-----42--42--42--42--42--42--42--42--42--42--42--42--42--42--42--|-----42--42--42--42--42--42--42--42--42--42--42--42--42------42--|
C|-----------------------------------------------------------------|-----------------------------------------------------------------|
C|-----------------------------------------------------------------|-----------------------------------------------------------------|
C|-----------------------------------------------------------------|-----------------------------------------------------------------|
C|-36--------------------------------------------------------------|-36------------------------------------------------------36------|


C|-49--------------------------------------------------------------|-49------------------------------------------------------49------|
C|-----42--42--42--42--42--42--42--42--42--42--42--42--42--42--42--|-----42--42--42--42--42--42--42--42--42--42--42--42--42------42--|
C|-----------------------------------------------------------------|-----------------------------------------------------------------|
C|-----------------------------------------------------------------|-----------------------------------------------------------------|
C|-----------------------------------------------------------------|-----------------------------------------------------------------|
C|-36--------------------------------------------------------------|-36------------------------------------------------------36------|


C|-49--------------------------------------------------------------|-49------------------------------49------------------------------|
C|-----42--42--42--42--42--42--42--42--42--42--42--42--42--42--42--|-----42--42--42--42--42--42--42------42--42--42--42--42--42--42--|
C|-----------------------------------------------------------------|-----------------------------------------------------------------|
C|-----------------------------------------------------------------|-----------------------------------------------------------------|
C|-----------------------------------------------------------------|-----------------------------------------------------------------|
C|-36--------------------------------------------------------------|-36------------------------------36------------------------------|


C|-49--------------------------------------------------------------|-49------------------------------49------------------------------|
C|-----42--42--42--42--42--42--42--42--42--42--42--42--42--42--42--|-----42--42--42--42--42--42--42------42--42--42--42--42--42--42--|
C|-----------------------------------------------------------------|-----------------------------------------------------------------|
C|-----------------------------------------------------------------|-----------------------------------------------------------------|
C|-----------------------------------------------------------------|-----------------------------------------------------------------|
C|-36--------------------------------------------------------------|-36------------------------------36------------------------------|


C|-49--------------------------------------------------------------|-49------------------------------49------------------------------|
C|-----42--42--42--42--42--42--42--42--42--42--42--42--42--42--42--|-----42--42--42--42--42--42--42------42--42--42--42--42--42--42--|
C|-----------------------------------------------------------------|-----------------------------------------------------------------|
C|-----------------------------------------------------------------|-----------------------------------------------------------------|
C|-----------------------------------------------------------------|-----------------------------------------------------------------|
C|-36--------------------------------------------------------------|-36------------------------------36------------------------------|


C|-49--------------------------------------------------------------|-49------------------------------49------------------------------|
C|-----42--42--42--42--42--42--42--42--42--42--42--42--42--42--42--|-----42--42--42--42--42--42--42------42--42--42--42--42--42--42--|
C|-----------------------------------------------------------------|-----------------------------------------------------------------|
C|-----------------------------------------------------------------|-----------------------------------------------------------------|
C|-----------------------------------------------------------------|-----------------------------------------------------------------|
C|-36--------------------------------------------------------------|-36------------------------------36------------------------------|


C|-49------------------------------49-----|---------|-----------------------------|
C|-----42--42--42--42--42--42--42---------|---------|-----------------------42----|
C|----------------------------------------|-%-------|-----------------------------|
C|----------------------------------------|-%-------|-43---43---43---43-----------|
C|----------------------------------------|---------|-38---38---38---38-----38----|
C|-36------------------------------36-----|---------|-----------------------------|


C|----------------------49-----|-----------------------------|-------49------|-----------------------------|
C|-----------------------------|-----------------------------|---------------|-----------------------42----|
C|----------%--%--47-----------|-----------------------------|-47------------|-----------------------------|
C|----------%--%--45-----------|-43---43---43---43-----------|-45------------|-43---43---43---43-----------|
C|-38-38-----------------------|-38---38---38---38-----38----|---------------|-38---38---38---38-----38----|
C|----------------------36-----|-----------------------------|-------36------|-----------------------------|


C|----------------------49-----|-----------------------------|-------49------|-----------------------------|
C|-----------------------------|-----------------------------|---------------|-----------------------42----|
C|----------%--%--47-----------|-----------------------------|-47------------|-----------------------------|
C|----------%--%--45-----------|-43---43---43---43-----------|-45------------|-43---43---43---43-----------|
C|-38-38-----------------------|-38---38---38---38-----38----|---------------|-38---38---38---38-----38----|
C|----------------------36-----|-----------------------------|-------36------|-----------------------------|


C|----------------------49-----|-----------------------------|-------49------|-----------------------------|
C|-----------------------------|-----------------------------|---------------|-----------------------42----|
C|----------%--%--47-----------|-----------------------------|-47------------|-----------------------------|
C|----------%--%--45-----------|-43---43---43---43-----------|-45------------|-43---43---43---43-----------|
C|-38-38-----------------------|-38---38---38---38-----38----|---------------|-38---38---38---38-----38----|
C|----------------------36-----|-----------------------------|-------36------|-----------------------------|


C|----------------------49-----|-----------------------------|-------49------|-----------------------------|
C|-----------------------------|-----------------------------|---------------|-----------------------42----|
C|----------%--%--47-----------|-----------------------------|-47------------|-----------------------------|
C|----------%--%--45-----------|-43---43---43---43-----------|-45------------|-43---43---43---43-----------|
C|-38-38-----------------------|-38---38---38---38-----38----|---------------|-38---38---38---38-----38----|
C|----------------------36-----|-----------------------------|-------36------|-----------------------------|


C|----------------------49-----|-----------------------------|-------49------|-----------------------------|
C|-----------------------------|-----------------------------|---------------|-----------------------42----|
C|----------%--%--47-----------|-----------------------------|-47------------|-----------------------------|
C|----------%--%--45-----------|-43---43---43---43-----------|-45------------|-43---43---43---43-----------|
C|-38-38-----------------------|-38---38---38---38-----38----|---------------|-38---38---38---38-----38----|
C|----------------------36-----|-----------------------------|-------36------|-----------------------------|


C|----------------------49-----|-----------------------------|-------49------|-----------------------------|
C|-----------------------------|-----------------------------|---------------|-----------------------42----|
C|----------%--%--47-----------|-----------------------------|-47------------|-----------------------------|
C|----------%--%--45-----------|-43---43---43---43-----------|-45------------|-43---43---43---43-----------|
C|-38-38-----------------------|-38---38---38---38-----38----|---------------|-38---38---38---38-----38----|
C|----------------------36-----|-----------------------------|-------36------|-----------------------------|


C|----------------------49-----|-----------------------------|-------49------|-----------------------------|
C|-----------------------------|-----------------------------|---------------|-----------------------42----|
C|----------%--%--47-----------|-----------------------------|-47------------|-----------------------------|
C|----------%--%--45-----------|-43---43---43---43-----------|-45------------|-43---43---43---43-----------|
C|-38-38-----------------------|-38---38---38---38-----38----|---------------|-38---38---38---38-----38----|
C|----------------------36-----|-----------------------------|-------36------|-----------------------------|


C|----------------------49-----|-----------------------------|-------49-----49---49---|
C|-----------------------------|-----------------------------|------------------------|
C|----------%--%--47-----------|-----------------------------|-47---------------------|
C|----------%--%--45-----------|-43---43---43---43-----------|-45---------------------|
C|-38-38-----------------------|-38---38---38---38-----38----|------------------------|
C|----------------------36-----|-----------------------------|-------36-----36---36---|


C|-49----49---49---49-----|-49------|---------|---------|---------|---------|---------|
C|------------------------|---------|---------|---------|---------|---------|---------|
C|------------------------|---------|-%-------|-%-------|-%-------|-%-------|-%-------|
C|------------------------|---------|-%-------|-%-------|-%-------|-%-------|-%-------|
C|------------------------|---------|---------|---------|---------|---------|---------|
C|-36----36---36---36-----|-36------|---------|---------|---------|---------|---------|


C|---------|---------|---------|---------|---------|---------|---------|---------|---------|
C|---------|---------|---------|---------|---------|---------|---------|---------|---------|
C|-%-------|-%-------|-%-------|-%-------|-%-------|-%-------|-%-------|-%-------|-%-------|
C|-%-------|-%-------|-%-------|-%-------|-%-------|-%-------|-%-------|-%-------|-%-------|
C|---------|---------|---------|---------|---------|---------|---------|---------|---------|
C|---------|---------|---------|---------|---------|---------|---------|---------|---------|


C|--------------------------------------------------------|-------------------------------------------------|
C|--------------------------------------------------------|-------------------------------------------------|
C|-%------------------------------------------------------|-------------------------------------------------|
C|-%------45-45-45-45-45-45-45-45-45-45-45-45-45-45-45-45-|-45-45-45-45-45-45-45-45-45-45-45-45-45-45-45-45-|
C|--------------------------------------------------------|-------------------------------------------------|
C|--------------------------------------------------------|-------------------------------------------------|


C|-----------------------------------------------------|-49----49----49----49----|-49----49----49-----|
C|-----------------------------------------------------|-------------------------|--------------------|
C|-------------------------%---------------------------|-------------------------|--------------------|
C|-------------------------%---------------------------|-------------------------|--------------------|
C|-43--43--43--43--43--43------43--------43------------|-------------------------|--------------------|
C|----------------------------------41--------41---41--|-36----36----36----36----|-36----36----36-----|


C|------------------------------------------------------------------|-49----49----49----49----|
C|-48---------------48---------------48-----------------------------|-------------------------|
C|----47----%--%-------47----%--%-------47----%--%------------------|-------------------------|
C|-------45-%--%----------45-%--%----------45-%--%------------------|-------------------------|
C|----------------------------------------------------38-38---38-38-|-------------------------|
C|------------------------------------------------------------------|-36----36----36----36----|


C|-49----49----49----49----49----49----49----49----49----49----|-49----49----49----49----49----49----49----49----49----49----49----49----49----49----49----49----|
C|----------------57----57----57----57----57----57----57----57-|----57----57----57----57----57----57----57----57----57----57----57----57----57----57----57----57-|
C|-------------------------------------------------------------|-------------------------------------------------------------------------------------------------|
C|-------------------------------------------------------------|-------------------------------------------------------------------------------------------------|
C|-------------------------------------------------------------|-------------------------------------------------------------------------------------------------|
C|-36----36----36----------------------------------------------|-------------------------------------------------------------------------------------------------|


C|-49----49----49----49----49----49----49----49----49----49----49---------------------|
C|----57----57----57----57----57----57----57----57----57----57------------------------|
C|----------------------------------------------------------------45-45---------------|
C|-----------------------------------------------------------------------38--38--38---|
C|------------------------------------------------------------------------------------|
C|------------------------------------------------------------------------------------|


C|-49------|
C|---------|
C|---------|
C|---------|
C|---------|
C|-36------|

    

Nézd meg a videót és ismerd meg a leggyorsabb utat, hogyan tanulhatod meg kedvenc számaid gitáron!