Hogyan játszd el gitáron a Unknown Artist – The Call Of Ktulu dalt?

Unknown Artist The Call Of Ktulu – GITÁR PRO TAB, KOTTA, AKKORDOK

Kotta típusa: Gtr I

(Általában egy zeneszám minden kottája: gitár, szólógitár, basszusgitár, ének, zongora, dob stb. megtalálható az oldalon, de mindegyik egy külön bejegyzésben. Ha egy másik hangszer gitártabos kottáját keresed, akkor az oldal alján vagy a keresőben megtalálod. Sokszor a zenekar tagjának a neve lesz a kotta kategóriája.)

        


E|------5------------------------5---------|------5------------------------5---------|
B|----------------6---------5---------6----|----------------6---------5---------6----|
G|-----------7-----------------------------|-----------7-----------------------------|
D|-0-------------------7-------------------|-0-------------------7-------------------|
A|-----------------------------------------|-----------------------------------------|
E|-----------------------------------------|-----------------------------------------|


E|------6------------------------6---------|------6------------------------6---------|
B|----------------6-------------------6----|----------------6-------------------6----|
G|-----------7--------------9--------------|-----------7--------------9--------------|
D|-0-------------------8-------------------|-0-------------------8-------------------|
A|-----------------------------------------|-----------------------------------------|
E|-----------------------------------------|-----------------------------------------|


E|------8------------------------8---------|------8------------------------8---------|
B|----------------8-------------------8----|----------------8-------------------8----|
G|-----------9--------------9--------------|-----------9--------------9--------------|
D|-0-------------------10------------------|-0-------------------10------------------|
A|-----------------------------------------|-----------------------------------------|
E|-----------------------------------------|-----------------------------------------|


E|------5------------------------5---------|------5------------------------5---------|
B|----------------6---------5---------6----|----------------6---------5---------6----|
G|-----------7-----------------------------|-----------7-----------------------------|
D|-0-------------------7-------------------|-0-------------------7-------------------|
A|-----------------------------------------|-----------------------------------------|
E|-----------------------------------------|-----------------------------------------|


E|------5------------------------5---------|------5------------------------5---------|
B|----------------6---------5---------6----|----------------6---------5---------6----|
G|-----------7-----------------------------|-----------7-----------------------------|
D|-0-------------------7-------------------|-0-------------------7-------------------|
A|-----------------------------------------|-----------------------------------------|
E|-----------------------------------------|-----------------------------------------|


E|------6------------------------6---------|------6------------------------6---------|
B|----------------6-------------------6----|----------------6-------------------6----|
G|-----------7--------------9--------------|-----------7--------------9--------------|
D|-0-------------------8-------------------|-0-------------------8-------------------|
A|-----------------------------------------|-----------------------------------------|
E|-----------------------------------------|-----------------------------------------|


E|------8------------------------8---------|------8------------------------8---------|
B|----------------8-------------------8----|----------------8-------------------8----|
G|-----------9--------------9--------------|-----------9--------------9--------------|
D|-0-------------------10------------------|-0-------------------10------------------|
A|-----------------------------------------|-----------------------------------------|
E|-----------------------------------------|-----------------------------------------|


E|------5------------------------5---------|---------|---------------------0-------------------|
B|----------------6---------5---------6----|-6-------|----------------0---------0--------------|
G|-----------7-----------------------------|---------|-----------5-------------------5---------|
D|-0-------------------7-------------------|-0-------|------7----------------------------------|
A|-----------------------------------------|---------|-0----------------------------------7----|
E|-----------------------------------------|---------|-----------------------------------------|


E|---------------------0-------------------|---------------------0-------------------|
B|----------------0---------0--------------|----------------0---------0--------------|
G|-----------5-------------------5---------|-----------5-------------------5---------|
D|------7-----------------------------7----|------7----------------------------------|
A|-6---------------------------------------|-0----------------------------------7----|
E|-----------------------------------------|-----------------------------------------|


E|---------------------0-------------------|---------------------0-------------------|
B|----------------0---------0--------------|----------------0---------0--------------|
G|-----------5-------------------5---------|-----------5-------------------5---------|
D|------7-----------------------------7----|------7----------------------------------|
A|-6---------------------------------------|-0----------------------------------7----|
E|-----------------------------------------|-----------------------------------------|


E|---------------------0-------------------|---------------------0-------------------|
B|----------------0---------0--------------|----------------0---------0--------------|
G|-----------5-------------------5---------|-----------5-------------------5---------|
D|------7-----------------------------7----|------7----------------------------------|
A|-6---------------------------------------|-0----------------------------------7----|
E|-----------------------------------------|-----------------------------------------|


E|---------------------0-------------------|----------------1-------------------1----|
B|----------------0---------0--------------|-----------3-------------------3---------|
G|-----------5-------------------5---------|------2-------------------3--------------|
D|------7-----------------------------7----|-0-------------------0-------------------|
A|-6---------------------------------------|-----------------------------------------|
E|-----------------------------------------|-----------------------------------------|


E|----------------1-------------------5----|----------------1-------------------1----|
B|-----------3-------------------3---------|-----------3-------------------3---------|
G|------4-------------------5--------------|------2-------------------3--------------|
D|-0-------------------0-------------------|-0-------------------0-------------------|
A|-----------------------------------------|-----------------------------------------|
E|-----------------------------------------|-----------------------------------------|


E|----------------1-------------------5----|----------------1-------------------1----|
B|-----------3-------------------3---------|-----------3-------------------3---------|
G|------4-------------------5--------------|------2-------------------3--------------|
D|-0-------------------0-------------------|-0-------------------0-------------------|
A|-----------------------------------------|-----------------------------------------|
E|-----------------------------------------|-----------------------------------------|


E|----------------1-------------------5----|----------------1-------------------1----|
B|-----------3-------------------3---------|-----------3-------------------3---------|
G|------4-------------------5--------------|------2-------------------3--------------|
D|-0-------------------0-------------------|-0-------------------0-------------------|
A|-----------------------------------------|-----------------------------------------|
E|-----------------------------------------|-----------------------------------------|


E|----------------1-------------------5----|---------------------0-------------------|
B|-----------3-------------------3---------|----------------0---------0--------------|
G|------4-------------------5--------------|-----------5-------------------5---------|
D|-0-------------------0-------------------|------7----------------------------------|
A|-----------------------------------------|-0----------------------------------7----|
E|-----------------------------------------|-----------------------------------------|


E|---------------------0-------------------|---------------------0-------------------|
B|----------------0---------0--------------|----------------0---------0--------------|
G|-----------5-------------------5---------|-----------5-------------------5---------|
D|------7-----------------------------7----|------7----------------------------------|
A|-6---------------------------------------|-0----------------------------------7----|
E|-----------------------------------------|-----------------------------------------|


E|---------------------0-------------------|---------------------0-------------------|
B|----------------0---------0--------------|----------------0---------0--------------|
G|-----------5-------------------5---------|-----------5-------------------5---------|
D|------7-----------------------------7----|------7----------------------------------|
A|-6---------------------------------------|-0----------------------------------7----|
E|-----------------------------------------|-----------------------------------------|


E|---------------------0-------------------|---------------------0-------------------|
B|----------------0---------0--------------|----------------0---------0--------------|
G|-----------5-------------------5---------|-----------5-------------------5---------|
D|------7-----------------------------7----|------7----------------------------------|
A|-6---------------------------------------|-0----------------------------------7----|
E|-----------------------------------------|-----------------------------------------|


E|---------------------0-------------------|----------------1-------------------1----|
B|----------------0---------0--------------|-----------3-------------------3---------|
G|-----------5-------------------5---------|------2-------------------3--------------|
D|------7-----------------------------7----|-0-------------------0-------------------|
A|-6---------------------------------------|-----------------------------------------|
E|-----------------------------------------|-----------------------------------------|


E|----------------1-------------------5----|----------------1-------------------1----|
B|-----------3-------------------3---------|-----------3-------------------3---------|
G|------4-------------------5--------------|------2-------------------3--------------|
D|-0-------------------0-------------------|-0-------------------0-------------------|
A|-----------------------------------------|-----------------------------------------|
E|-----------------------------------------|-----------------------------------------|


E|----------------1-------------------5----|----------------1-------------------1----|
B|-----------3-------------------3---------|-----------3-------------------3---------|
G|------4-------------------5--------------|------2-------------------3--------------|
D|-0-------------------0-------------------|-0-------------------0-------------------|
A|-----------------------------------------|-----------------------------------------|
E|-----------------------------------------|-----------------------------------------|


E|----------------1-------------------5----|----------------1-------------------1----|
B|-----------3-------------------3---------|-----------3-------------------3---------|
G|------4-------------------5--------------|------2-------------------3--------------|
D|-0-------------------0-------------------|-0-------------------0-------------------|
A|-----------------------------------------|-----------------------------------------|
E|-----------------------------------------|-----------------------------------------|


E|----------------1-------------------5----|---------------------------------0-------------------------------|
B|-----------3-------------------3---------|-------------------------0---------------0-----------------------|
G|------4-------------------5--------------|-----%-------%---5---%-------%-------%-------%---5---%-------%---|
D|-0-------------------0-------------------|-----%---7---%-------%-------%-------%-------%-------%-------%---|
A|-----------------------------------------|-0-------------------------------------------------------7-------|
E|-----------------------------------------|-----------------------------------------------------------------|


E|---------------------------------0-------------------------------|---------------------------------0-------------------------------|
B|-------------------------0---------------0-----------------------|-------------------------0---------------0-----------------------|
G|-----%-------%---5---%-------%-------%-------%---5---%-------%---|-----%-------%---5---%-------%-------%-------%---5---%-------%---|
D|-----%---7---%-------%-------%-------%-------%-------%---7---%---|-----%---7---%-------%-------%-------%-------%-------%-------%---|
A|-6---------------------------------------------------------------|-0-------------------------------------------------------7-------|
E|-----------------------------------------------------------------|-----------------------------------------------------------------|


E|---------------------------------0-------------------------------|---------------------------------0-------------------------------|
B|-------------------------0---------------0-----------------------|-------------------------0---------------0-----------------------|
G|-----%-------%---5---%-------%-------%-------%---5---%-------%---|-----%-------%---5---%-------%-------%-------%---5---%-------%---|
D|-----%---7---%-------%-------%-------%-------%-------%---7---%---|-----%---7---%-------%-------%-------%-------%-------%-------%---|
A|-6---------------------------------------------------------------|-0-------------------------------------------------------7-------|
E|-----------------------------------------------------------------|-----------------------------------------------------------------|


E|---------------------------------0-------------------------------|---------------------------------0-------------------------------|
B|-------------------------0---------------0-----------------------|-------------------------0---------------0-----------------------|
G|-----%-------%---5---%-------%-------%-------%---5---%-------%---|-----%-------%---5---%-------%-------%-------%---5---%-------%---|
D|-----%---7---%-------%-------%-------%-------%-------%---7---%---|-----%---7---%-------%-------%-------%-------%-------%-------%---|
A|-6---------------------------------------------------------------|-0-------------------------------------------------------7-------|
E|-----------------------------------------------------------------|-----------------------------------------------------------------|


E|---------------------------------0-------------------------------|-------------------------1-------------------------------1-------|
B|-------------------------0---------------0-----------------------|-----------------3-------------------------------3---------------|
G|-----%-------%---5---%-------%-------%-------%---5---%-------%---|-----%---2---%-------%-------%-------%---3---%-------%-------%---|
D|-----%---7---%-------%-------%-------%-------%-------%---7---%---|-0---%-------%-------%-------%---0---%-------%-------%-------%---|
A|-6---------------------------------------------------------------|-----------------------------------------------------------------|
E|-----------------------------------------------------------------|-----------------------------------------------------------------|


E|-------------------------1-------------------------------5-------|-------------------------1-------------------------------1-------|
B|-----------------3-------------------------------3---------------|-----------------3-------------------------------3---------------|
G|-----%---4---%-------%-------%-------%---5---%-------%-------%---|-----%---2---%-------%-------%-------%---3---%-------%-------%---|
D|-0---%-------%-------%-------%---0---%-------%-------%-------%---|-0---%-------%-------%-------%---0---%-------%-------%-------%---|
A|-----------------------------------------------------------------|-----------------------------------------------------------------|
E|-----------------------------------------------------------------|-----------------------------------------------------------------|


E|-------------------------1-------------------------------5-------|-------------------------1-------------------------------1-------|
B|-----------------3-------------------------------3---------------|-----------------3-------------------------------3---------------|
G|-----%---4---%-------%-------%-------%---5---%-------%-------%---|-----%---2---%-------%-------%-------%---3---%-------%-------%---|
D|-0---%-------%-------%-------%---0---%-------%-------%-------%---|-0---%-------%-------%-------%---0---%-------%-------%-------%---|
A|-----------------------------------------------------------------|-----------------------------------------------------------------|
E|-----------------------------------------------------------------|-----------------------------------------------------------------|


E|-------------------------1-------------------------------5-------|-------------------------1-------------------------------1-------|
B|-----------------3-------------------------------3---------------|-----------------3-------------------------------3---------------|
G|-----%---4---%-------%-------%-------%---5---%-------%-------%---|-----%---2---%-------%-------%-------%---3---%-------%-------%---|
D|-0---%-------%-------%-------%---0---%-------%-------%-------%---|-0---%-------%-------%-------%---0---%-------%-------%-------%---|
A|-----------------------------------------------------------------|-----------------------------------------------------------------|
E|-----------------------------------------------------------------|-----------------------------------------------------------------|


E|-------------------------1-------------------------------5-------|---------------------------------0-------------------------------|
B|-----------------3-------------------------------3---------------|-------------------------0---------------0-----------------------|
G|-----%---4---%-------%-------%-------%---5---%-------%-------%---|-----%-------%---5---%-------%-------%-------%---5---%-------%---|
D|-0---%-------%-------%-------%---0---%-------%-------%-------%---|-----%---7---%-------%-------%-------%-------%-------%-------%---|
A|-----------------------------------------------------------------|-0-------------------------------------------------------7-------|
E|-----------------------------------------------------------------|-----------------------------------------------------------------|


E|---------------------------------0-------------------------------|---------------------------------0-------------------------------|
B|-------------------------0---------------0-----------------------|-------------------------0---------------0-----------------------|
G|-----%-------%---5---%-------%-------%-------%---5---%-------%---|-----%-------%---5---%-------%-------%-------%---5---%-------%---|
D|-----%---7---%-------%-------%-------%-------%-------%---7---%---|-----%---7---%-------%-------%-------%-------%-------%-------%---|
A|-6---------------------------------------------------------------|-0-------------------------------------------------------7-------|
E|-----------------------------------------------------------------|-----------------------------------------------------------------|


E|---------------------------------0-------------------------------|---------------------------------0-------------------------------|
B|-------------------------0---------------0-----------------------|-------------------------0---------------0-----------------------|
G|-----%-------%---5---%-------%-------%-------%---5---%-------%---|-----%-------%---5---%-------%-------%-------%---5---%-------%---|
D|-----%---7---%-------%-------%-------%-------%-------%---7---%---|-----%---7---%-------%-------%-------%-------%-------%-------%---|
A|-6---------------------------------------------------------------|-0-------------------------------------------------------7-------|
E|-----------------------------------------------------------------|-----------------------------------------------------------------|


E|---------------------------------0-------------------------------|---------------------------------0-------------------------------|
B|-------------------------0---------------0-----------------------|-------------------------0---------------0-----------------------|
G|-----%-------%---5---%-------%-------%-------%---5---%-------%---|-----%-------%---5---%-------%-------%-------%---5---%-------%---|
D|-----%---7---%-------%-------%-------%-------%-------%---7---%---|-----%---7---%-------%-------%-------%-------%-------%-------%---|
A|-6---------------------------------------------------------------|-0-------------------------------------------------------7-------|
E|-----------------------------------------------------------------|-----------------------------------------------------------------|


E|---------------------------------0-------------------------------|-------------------------1-------------------------------1-------|
B|-------------------------0---------------0-----------------------|-----------------3-------------------------------3---------------|
G|-----%-------%---5---%-------%-------%-------%---5---%-------%---|-----%---2---%-------%-------%-------%---3---%-------%-------%---|
D|-----%---7---%-------%-------%-------%-------%-------%---7---%---|-0---%-------%-------%-------%---0---%-------%-------%-------%---|
A|-6---------------------------------------------------------------|-----------------------------------------------------------------|
E|-----------------------------------------------------------------|-----------------------------------------------------------------|


E|-------------------------1-------------------------------5-------|-------------------------1-------------------------------1-------|
B|-----------------3-------------------------------3---------------|-----------------3-------------------------------3---------------|
G|-----%---4---%-------%-------%-------%---5---%-------%-------%---|-----%---2---%-------%-------%-------%---3---%-------%-------%---|
D|-0---%-------%-------%-------%---0---%-------%-------%-------%---|-0---%-------%-------%-------%---0---%-------%-------%-------%---|
A|-----------------------------------------------------------------|-----------------------------------------------------------------|
E|-----------------------------------------------------------------|-----------------------------------------------------------------|


E|-------------------------1-------------------------------5-------|-------------------------1-------------------------------1-------|
B|-----------------3-------------------------------3---------------|-----------------3-------------------------------3---------------|
G|-----%---4---%-------%-------%-------%---5---%-------%-------%---|-----%---2---%-------%-------%-------%---3---%-------%-------%---|
D|-0---%-------%-------%-------%---0---%-------%-------%-------%---|-0---%-------%-------%-------%---0---%-------%-------%-------%---|
A|-----------------------------------------------------------------|-----------------------------------------------------------------|
E|-----------------------------------------------------------------|-----------------------------------------------------------------|


E|-------------------------1-------------------------------5-------|-------------------------1-------------------------------1-------|
B|-----------------3-------------------------------3---------------|-----------------3-------------------------------3---------------|
G|-----%---4---%-------%-------%-------%---5---%-------%-------%---|-----%---2---%-------%-------%-------%---3---%-------%-------%---|
D|-0---%-------%-------%-------%---0---%-------%-------%-------%---|-0---%-------%-------%-------%---0---%-------%-------%-------%---|
A|-----------------------------------------------------------------|-----------------------------------------------------------------|
E|-----------------------------------------------------------------|-----------------------------------------------------------------|


E|-------------------------1-------------------------------5-------|-----------------------------------------|
B|-----------------3-------------------------------3---------------|-----------------------------------------|
G|-----%---4---%-------%-------%-------%---5---%-------%-------%---|-----------------------------------------|
D|-0---%-------%-------%-------%---0---%-------%-------%-------%---|------------------------------------9----|
A|-----------------------------------------------------------------|-7----7----7----7----7----7----7----7----|
E|-----------------------------------------------------------------|-5----5----5----5----5----5----5---------|


E|-----------------------------------------------------|-----------------------------------------|
B|-----------------------------------------------------|-----------------------------------------|
G|----------%-------%-------%-------%------------------|-----------------------------------------|
D|-8--------%-------%-------%---8---%---9----9----11---|------------------------------------9----|
A|-6----6-------6-------6-------6-------7----7----9----|-7----7----7----7----7----7----7----7----|
E|-----------------------------------------------------|-5----5----5----5----5----5----5---------|


E|-----------------------------------------------------|-----------------------------------------|
B|-----------------------------------------------------|-----------------------------------------|
G|----------%-------%-------%-------%------------------|-----------------------------------------|
D|-8--------%-------%-------%---8---%---9----9----11---|------------------------------------9----|
A|-6----6-------6-------6-------6-------7----7----9----|-7----7----7----7----7----7----7----7----|
E|-----------------------------------------------------|-5----5----5----5----5----5----5---------|


E|-----------------------------------------------------|-----------------------------------------|
B|-----------------------------------------------------|-----------------------------------------|
G|----------%-------%-------%-------%------------------|-----------------------------------------|
D|-8--------%-------%-------%---8---%---9----9----11---|------------------------------------9----|
A|-6----6-------6-------6-------6-------7----7----9----|-7----7----7----7----7----7----7----7----|
E|-----------------------------------------------------|-5----5----5----5----5----5----5---------|


E|-----------------------------------------------------|-----------------------------------------|
B|-----------------------------------------------------|-----------------------------------------|
G|----------%-------%-------%-------%------------------|-2----2----2----2----3----3----3----3----|
D|-8--------%-------%-------%---8---%---9----9----11---|-0----0----0----0----0----0----0----0----|
A|-6----6-------6-------6-------6-------7----7----9----|-----------------------------------------|
E|-----------------------------------------------------|-----------------------------------------|


E|-----------------------------------------|-----------------------------------------|
B|-----------------------------------------|-----------------------------------------|
G|-4----4----4----4----5----5----5----5----|-2----2----2----2----3----3----3----3----|
D|-0----0----0----0----0----0----0----0----|-0----0----0----0----0----0----0----0----|
A|-----------------------------------------|-----------------------------------------|
E|-----------------------------------------|-----------------------------------------|


E|-----------------------------------------|-----------------------------------------|
B|-----------------------------------------|-----------------------------------------|
G|-4----4----4----4----5----5----5----5----|-2----2----2----2----3----3----3----3----|
D|-0----0----0----0----0----0----0----0----|-0----0----0----0----0----0----0----0----|
A|-----------------------------------------|-----------------------------------------|
E|-----------------------------------------|-----------------------------------------|


E|-----------------------------------------|-----------------------------------------|
B|-----------------------------------------|-----------------------------------------|
G|-4----4----4----4----5----5----5----5----|-2----2----2----2----3----3----3----3----|
D|-0----0----0----0----0----0----0----0----|-0----0----0----0----0----0----0----0----|
A|-----------------------------------------|-----------------------------------------|
E|-----------------------------------------|-----------------------------------------|


E|-----------------------------------------|-----------------------------------------|
B|-----------------------------------------|-----------------------------------------|
G|-4----4----4----4----5----5----5----5----|-----------------------------------------|
D|-0----0----0----0----0----0----0----0----|------------------------------------9----|
A|-----------------------------------------|-7----7----7----7----7----7----7----7----|
E|-----------------------------------------|-5----5----5----5----5----5----5---------|


E|-----------------------------------------------------|-----------------------------------------|
B|-----------------------------------------------------|-----------------------------------------|
G|----------%-------%-------%-------%------------------|-----------------------------------------|
D|-8--------%-------%-------%---8---%---9----9----11---|------------------------------------9----|
A|-6----6-------6-------6-------6-------7----7----9----|-7----7----7----7----7----7----7----7----|
E|-----------------------------------------------------|-5----5----5----5----5----5----5---------|


E|-----------------------------------------------------|-----------------------------------------|
B|-----------------------------------------------------|-----------------------------------------|
G|----------%-------%-------%-------%------------------|-----------------------------------------|
D|-8--------%-------%-------%---8---%---9----9----11---|------------------------------------9----|
A|-6----6-------6-------6-------6-------7----7----9----|-7----7----7----7----7----7----7----7----|
E|-----------------------------------------------------|-5----5----5----5----5----5----5---------|


E|-----------------------------------------------------|-----------------------------------------|
B|-----------------------------------------------------|-----------------------------------------|
G|----------%-------%-------%-------%------------------|-----------------------------------------|
D|-8--------%-------%-------%---8---%---9----9----11---|------------------------------------9----|
A|-6----6-------6-------6-------6-------7----7----9----|-7----7----7----7----7----7----7----7----|
E|-----------------------------------------------------|-5----5----5----5----5----5----5---------|


E|-----------------------------------------------------|-----------------------------------------|
B|-----------------------------------------------------|-----------------------------------------|
G|----------%-------%-------%-------%------------------|-2----2----2----2----3----3----3----3----|
D|-8--------%-------%-------%---8---%---9----9----11---|-0----0----0----0----0----0----0----0----|
A|-6----6-------6-------6-------6-------7----7----9----|-----------------------------------------|
E|-----------------------------------------------------|-----------------------------------------|


E|-----------------------------------------|-----------------------------------------|
B|-----------------------------------------|-----------------------------------------|
G|-4----4----4----4----5----5----5----5----|-2----2----2----2----3----3----3----3----|
D|-0----0----0----0----0----0----0----0----|-0----0----0----0----0----0----0----0----|
A|-----------------------------------------|-----------------------------------------|
E|-----------------------------------------|-----------------------------------------|


E|-----------------------------------------|-----------------------------------------|
B|-----------------------------------------|-----------------------------------------|
G|-4----4----4----4----5----5----5----5----|-2----2----2----2----3----3----3----3----|
D|-0----0----0----0----0----0----0----0----|-0----0----0----0----0----0----0----0----|
A|-----------------------------------------|-----------------------------------------|
E|-----------------------------------------|-----------------------------------------|


E|-----------------------------------------|-----------------------------------------|
B|-----------------------------------------|-----------------------------------------|
G|-4----4----4----4----5----5----5----5----|-2----2----2----2----3----3----3----3----|
D|-0----0----0----0----0----0----0----0----|-0----0----0----0----0----0----0----0----|
A|-----------------------------------------|-----------------------------------------|
E|-----------------------------------------|-----------------------------------------|


E|-----------------------------------------|-----------------------------------------------------|
B|-----------------------------------------|-----------------------------------------------------|
G|-4----4----4----4----5----5----5----5----|----------%-------%-------%------------%-------------|
D|-0----0----0----0----0----0----0----0----|----------%-------%-------%------------%-------------|
A|-----------------------------------------|-2----------------------------0------------2----3----|
E|-----------------------------------------|-0----0-------0-------0------------0-----------------|


E|-----------------------------------------------|-----------------------------------------------------|
B|-----------------------------------------------|-----------------------------------------------------|
G|----------%-------%-------%--------------------|----------%-------%-------%------------%-------------|
D|----------%-------%-------%--------------------|----------%-------%-------%------------%-------------|
A|-3----------------------------0-----2-----3----|-4----------------------------0------------2----3----|
E|-1----1-------1-------1------------------------|-2----2-------2-------2------------0-----------------|


E|-----------------------------------------------|-----------------------------------------------------|
B|-----------------------------------------------|-----------------------------------------------------|
G|----------%-------%-------%--------------------|----------%-------%-------%------------%-------------|
D|----------%-------%-------%--------------------|----------%-------%-------%------------%-------------|
A|-5----------------------------3-----2----------|-2----------------------------0------------2----3----|
E|-3----3-------3-------3-------------------3----|-0----0-------0-------0------------0-----------------|


E|-----------------------------------------------|-----------------------------------------------------|
B|-----------------------------------------------|-----------------------------------------------------|
G|----------%-------%-------%--------------------|----------%-------%-------%------------%-------------|
D|----------%-------%-------%--------------------|----------%-------%-------%------------%-------------|
A|-3----------------------------0-----2-----3----|-4----------------------------0------------2----3----|
E|-1----1-------1-------1------------------------|-2----2-------2-------2------------0-----------------|


E|-----------------------------------------------|-----------------------------------------------------|
B|-----------------------------------------------|-----------------------------------------------------|
G|----------%-------%-------%--------------------|----------%-------%-------%------------%-------------|
D|----------%-------%-------%--------------------|----------%-------%-------%------------%-------------|
A|-5----------------------------3-----2----------|-2----------------------------0------------2----3----|
E|-3----3-------3-------3-------------------3----|-0----0-------0-------0------------0-----------------|


E|-----------------------------------------------|-----------------------------------------------------|
B|-----------------------------------------------|-----------------------------------------------------|
G|----------%-------%-------%--------------------|----------%-------%-------%------------%-------------|
D|----------%-------%-------%--------------------|----------%-------%-------%------------%-------------|
A|-3----------------------------0-----2-----3----|-4----------------------------0------------2----3----|
E|-1----1-------1-------1------------------------|-2----2-------2-------2------------0-----------------|


E|-----------------------------------------------|-----------------------------------------------------|
B|-----------------------------------------------|-----------------------------------------------------|
G|----------%-------%-------%--------------------|----------%-------%-------%------------%-------------|
D|----------%-------%-------%--------------------|----------%-------%-------%------------%-------------|
A|-5----------------------------3-----2----------|-2----------------------------0------------2----3----|
E|-3----3-------3-------3-------------------3----|-0----0-------0-------0------------0-----------------|


E|-----------------------------------------------|-----------------------------------------------------|
B|-----------------------------------------------|-----------------------------------------------------|
G|----------%-------%-------%--------------------|----------%-------%-------%------------%-------------|
D|----------%-------%-------%--------------------|----------%-------%-------%------------%-------------|
A|-3----------------------------0-----2-----3----|-4----------------------------0------------2----3----|
E|-1----1-------1-------1------------------------|-2----2-------2-------2------------0-----------------|


E|-----------------------------------------------|-----------------------------------------------------|
B|-----------------------------------------------|-----------------------------------------------------|
G|----------%-------%-------%--------------------|----------%-------%-------%------------%-------------|
D|----------%-------%-------%--------------------|----------%-------%-------%------------%-------------|
A|-5----------------------------3-----2----------|-5----------------------------3------------5----6----|
E|-3----3-------3-------3-------------------3----|-3----3-------3-------3------------3-----------------|


E|-----------------------------------------------|-----------------------------------------------------|
B|-----------------------------------------------|-----------------------------------------------------|
G|----------%-------%-------%--------------------|----------%-------%-------%------------%-------------|
D|----------%-------%-------%--------------------|----------%-------%-------%------------%-------------|
A|-6----------------------------3-----5-----6----|-7-----------------------------------------5----6----|
E|-4----4-------4-------4------------------------|-5----5-------5-------5-------8----5-----------------|


E|-----------------------------------------------|-----------------------------------------------------|
B|-----------------------------------------------|-----------------------------------------------------|
G|----------%-------%-------%--------------------|----------%-------%-------%------------%-------------|
D|----------%-------%-------%--------------------|----------%-------%-------%------------%-------------|
A|-8----------------------------6-----5----------|-5----------------------------3------------5----6----|
E|------6-------6-------6-------------------6----|-3----3-------3-------3------------3-----------------|


E|-----------------------------------------------|-----------------------------------------------------|
B|-----------------------------------------------|-----------------------------------------------------|
G|----------%-------%-------%--------------------|----------%-------%-------%------------%-------------|
D|----------%-------%-------%--------------------|----------%-------%-------%------------%-------------|
A|-6----------------------------3-----5-----6----|-7-----------------------------------------5----6----|
E|-4----4-------4-------4------------------------|-5----5-------5-------5-------8----5-----------------|


E|-----------------------------------------------|-----------------------------------------|
B|-----------------------------------------------|-----------------------------------------|
G|----------%-------%-------%--------------------|-----------------------------------------|
D|----------%-------%-------%--------------------|------------------------------------9----|
A|-8----------------------------6-----5----------|-7----7----7----7----7----7----7----7----|
E|------6-------6-------6-------------------6----|-5----5----5----5----5----5----5---------|


E|-----------------------------------------------------|-----------------------------------------|
B|-----------------------------------------------------|-----------------------------------------|
G|----------%-------%-------%-------%------------------|-----------------------------------------|
D|-8--------%-------%-------%---8---%---9----9----11---|------------------------------------9----|
A|-6----6-------6-------6-------6-------7----7----9----|-7----7----7----7----7----7----7----7----|
E|-----------------------------------------------------|-5----5----5----5----5----5----5---------|


E|-----------------------------------------------------|-----------------------------------------|
B|-----------------------------------------------------|-----------------------------------------|
G|----------%-------%-------%-------%------------------|-----------------------------------------|
D|-8--------%-------%-------%---8---%---9----9----11---|------------------------------------9----|
A|-6----6-------6-------6-------6-------7----7----9----|-7----7----7----7----7----7----7----7----|
E|-----------------------------------------------------|-5----5----5----5----5----5----5---------|


E|-----------------------------------------------------|-----------------------------------------|
B|-----------------------------------------------------|-----------------------------------------|
G|----------%-------%-------%-------%------------------|-----------------------------------------|
D|-8--------%-------%-------%---8---%---9----9----11---|------------------------------------9----|
A|-6----6-------6-------6-------6-------7----7----9----|-7----7----7----7----7----7----7----7----|
E|-----------------------------------------------------|-5----5----5----5----5----5----5---------|


E|-----------------------------------------------------|-----------------------------------------|
B|-----------------------------------------------------|-----------------------------------------|
G|----------%-------%-------%-------%------------------|-2----2----2----2----3----3----3----3----|
D|-8--------%-------%-------%---8---%---9----9----11---|-0----0----0----0----0----0----0----0----|
A|-6----6-------6-------6-------6-------7----7----9----|-----------------------------------------|
E|-----------------------------------------------------|-----------------------------------------|


E|-----------------------------------------|-----------------------------------------|
B|-----------------------------------------|-----------------------------------------|
G|-4----4----4----4----5----5----5----5----|-2----2----2----2----3----3----3----3----|
D|-0----0----0----0----0----0----0----0----|-0----0----0----0----0----0----0----0----|
A|-----------------------------------------|-----------------------------------------|
E|-----------------------------------------|-----------------------------------------|


E|-----------------------------------------|-----------------------------------------|
B|-----------------------------------------|-----------------------------------------|
G|-4----4----4----4----5----5----5----5----|-2----2----2----2----3----3----3----3----|
D|-0----0----0----0----0----0----0----0----|-0----0----0----0----0----0----0----0----|
A|-----------------------------------------|-----------------------------------------|
E|-----------------------------------------|-----------------------------------------|


E|-----------------------------------------|-----------------------------------------|
B|-----------------------------------------|-----------------------------------------|
G|-4----4----4----4----5----5----5----5----|-2----2----2----2----3----3----3----3----|
D|-0----0----0----0----0----0----0----0----|-0----0----0----0----0----0----0----0----|
A|-----------------------------------------|-----------------------------------------|
E|-----------------------------------------|-----------------------------------------|


E|-----------------------------------------|-----------------------------------------|
B|-----------------------------------------|-----------------------------------------|
G|-4----4----4----4----5----5----5----5----|-----------------------------------------|
D|-0----0----0----0----0----0----0----0----|------------------------------------9----|
A|-----------------------------------------|-7----7----7----7----7----7----7----7----|
E|-----------------------------------------|-5----5----5----5----5----5----5---------|


E|-----------------------------------------------------|-----------------------------------------|
B|-----------------------------------------------------|-----------------------------------------|
G|----------%-------%-------%-------%------------------|-----------------------------------------|
D|-8--------%-------%-------%---8---%---9----9----11---|------------------------------------9----|
A|-6----6-------6-------6-------6-------7----7----9----|-7----7----7----7----7----7----7----7----|
E|-----------------------------------------------------|-5----5----5----5----5----5----5---------|


E|-----------------------------------------------------|-----------------------------------------|
B|-----------------------------------------------------|-----------------------------------------|
G|----------%-------%-------%-------%------------------|-----------------------------------------|
D|-8--------%-------%-------%---8---%---9----9----11---|------------------------------------9----|
A|-6----6-------6-------6-------6-------7----7----9----|-7----7----7----7----7----7----7----7----|
E|-----------------------------------------------------|-5----5----5----5----5----5----5---------|


E|-----------------------------------------------------|-----------------------------------------|
B|-----------------------------------------------------|-----------------------------------------|
G|----------%-------%-------%-------%------------------|-----------------------------------------|
D|-8--------%-------%-------%---8---%---9----9----11---|------------------------------------9----|
A|-6----6-------6-------6-------6-------7----7----9----|-7----7----7----7----7----7----7----7----|
E|-----------------------------------------------------|-5----5----5----5----5----5----5---------|


E|-----------------------------------------------------|-----------------------------------------|
B|-----------------------------------------------------|-----------------------------------------|
G|----------%-------%-------%-------%------------------|-2----2----2----2----3----3----3----3----|
D|-8--------%-------%-------%---8---%---9----9----11---|-0----0----0----0----0----0----0----0----|
A|-6----6-------6-------6-------6-------7----7----9----|-----------------------------------------|
E|-----------------------------------------------------|-----------------------------------------|


E|-----------------------------------------|-----------------------------------------|
B|-----------------------------------------|-----------------------------------------|
G|-4----4----4----4----5----5----5----5----|-2----2----2----2----3----3----3----3----|
D|-0----0----0----0----0----0----0----0----|-0----0----0----0----0----0----0----0----|
A|-----------------------------------------|-----------------------------------------|
E|-----------------------------------------|-----------------------------------------|


E|-----------------------------------------|-----------------------------------------|
B|-----------------------------------------|-----------------------------------------|
G|-4----4----4----4----5----5----5----5----|-2----2----2----2----3----3----3----3----|
D|-0----0----0----0----0----0----0----0----|-0----0----0----0----0----0----0----0----|
A|-----------------------------------------|-----------------------------------------|
E|-----------------------------------------|-----------------------------------------|


E|-----------------------------------------|-----------------------------------------|
B|-----------------------------------------|-----------------------------------------|
G|-4----4----4----4----5----5----5----5----|-2----2----2----2----3----3----3----3----|
D|-0----0----0----0----0----0----0----0----|-0----0----0----0----0----0----0----0----|
A|-----------------------------------------|-----------------------------------------|
E|-----------------------------------------|-----------------------------------------|


E|-----------------------------------------|-----------------------------------------|
B|-----------------------------------------|-----------------------------------------|
G|-4----4----4----4----5----5----5----5----|-----------------------------------------|
D|-0----0----0----0----0----0----0----0----|------------------------------------9----|
A|-----------------------------------------|-7----7----7----7----7----7----7----7----|
E|-----------------------------------------|-5----5----5----5----5----5----5---------|


E|-----------------------------------------------------|-----------------------------------------|
B|-----------------------------------------------------|-----------------------------------------|
G|----------%-------%-------%-------%------------------|-----------------------------------------|
D|-8--------%-------%-------%---8---%---9----9----11---|------------------------------------9----|
A|-6----6-------6-------6-------6-------7----7----9----|-7----7----7----7----7----7----7----7----|
E|-----------------------------------------------------|-5----5----5----5----5----5----5---------|


E|-----------------------------------------------------|-----------------------------------------|
B|-----------------------------------------------------|-----------------------------------------|
G|----------%-------%-------%-------%------------------|-----------------------------------------|
D|-8--------%-------%-------%---8---%---9----9----11---|------------------------------------9----|
A|-6----6-------6-------6-------6-------7----7----9----|-7----7----7----7----7----7----7----7----|
E|-----------------------------------------------------|-5----5----5----5----5----5----5---------|


E|-----------------------------------------------------|-----------------------------------------|
B|-----------------------------------------------------|-----------------------------------------|
G|----------%-------%-------%-------%------------------|-----------------------------------------|
D|-8--------%-------%-------%---8---%---9----9----11---|------------------------------------9----|
A|-6----6-------6-------6-------6-------7----7----9----|-7----7----7----7----7----7----7----7----|
E|-----------------------------------------------------|-5----5----5----5----5----5----5---------|


E|-----------------------------------------------------|-----------------------------------------|
B|-----------------------------------------------------|-----------------------------------------|
G|----------%-------%-------%-------%------------------|-2----2----2----2----3----3----3----3----|
D|-8--------%-------%-------%---8---%---9----9----11---|-0----0----0----0----0----0----0----0----|
A|-6----6-------6-------6-------6-------7----7----9----|-----------------------------------------|
E|-----------------------------------------------------|-----------------------------------------|


E|-----------------------------------------|-----------------------------------------|
B|-----------------------------------------|-----------------------------------------|
G|-4----4----4----4----5----5----5----5----|-2----2----2----2----3----3----3----3----|
D|-0----0----0----0----0----0----0----0----|-0----0----0----0----0----0----0----0----|
A|-----------------------------------------|-----------------------------------------|
E|-----------------------------------------|-----------------------------------------|


E|-----------------------------------------|-----------------------------------------|
B|-----------------------------------------|-----------------------------------------|
G|-4----4----4----4----5----5----5----5----|-2----2----2----2----3----3----3----3----|
D|-0----0----0----0----0----0----0----0----|-0----0----0----0----0----0----0----0----|
A|-----------------------------------------|-----------------------------------------|
E|-----------------------------------------|-----------------------------------------|


E|-----------------------------------------|-----------------------------------------|
B|-----------------------------------------|-----------------------------------------|
G|-4----4----4----4----5----5----5----5----|-2----2----2----2----3----3----3----3----|
D|-0----0----0----0----0----0----0----0----|-0----0----0----0----0----0----0----0----|
A|-----------------------------------------|-----------------------------------------|
E|-----------------------------------------|-----------------------------------------|


E|-----------------------------------------|-----------------------------------------------------|
B|-----------------------------------------|-----------------------------------------------------|
G|-4----4----4----4----5----5----5----5----|----------%-------%-------%------------%-------------|
D|-0----0----0----0----0----0----0----0----|----------%-------%-------%------------%-------------|
A|-----------------------------------------|-2----------------------------0------------2----3----|
E|-----------------------------------------|-0----0-------0-------0------------0-----------------|


E|-----------------------------------------------|-----------------------------------------------------|
B|-----------------------------------------------|-----------------------------------------------------|
G|----------%-------%-------%--------------------|----------%-------%-------%------------%-------------|
D|----------%-------%-------%--------------------|----------%-------%-------%------------%-------------|
A|-3----------------------------0-----2-----3----|-2----------------------------0------------2----3----|
E|-1----1-------1-------1------------------------|-0----0-------0-------0------------0-----------------|


E|-----------------------------------------------|-----------------------------------------------------|
B|-----------------------------------------------|-----------------------------------------------------|
G|----------%-------%-------%--------------------|----------%-------%-------%------------%-------------|
D|----------%-------%-------%--------------------|----------%-------%-------%------------%-------------|
A|-3----------------------------0-----2-----3----|-2----------------------------0------------2----3----|
E|-1----1-------1-------1------------------------|-0----0-------0-------0------------0-----------------|


E|-----------------------------------------------|-----------------------------------------------------|
B|-----------------------------------------------|-----------------------------------------------------|
G|----------%-------%-------%--------------------|----------%-------%-------%------------%-------------|
D|----------%-------%-------%--------------------|----------%-------%-------%------------%-------------|
A|-3----------------------------0-----2-----3----|-2----------------------------0------------2----3----|
E|-1----1-------1-------1------------------------|-0----0-------0-------0------------0-----------------|


E|-----------------------------------------------|-----------------------------------------------------|
B|-----------------------------------------------|-----------------------------------------------------|
G|----------%-------%-------%--------------------|----------%-------%-------%------------%-------------|
D|----------%-------%-------%--------------------|----------%-------%-------%------------%-------------|
A|-3----------------------------0-----2-----3----|-4----------------------------2------------4----5----|
E|-1----1-------1-------1------------------------|-2----2-------2-------2------------2-----------------|


E|-----------------------------------------------|-----------------------------------------------------|
B|-----------------------------------------------|-----------------------------------------------------|
G|----------%-------%-------%--------------------|----------%-------%-------%------------%-------------|
D|----------%-------%-------%--------------------|----------%-------%-------%------------%-------------|
A|-5----------------------------2-----4-----5----|-4----------------------------2------------4----5----|
E|-3----3-------3-------3------------------------|-2----2-------2-------2------------2-----------------|


E|-----------------------------------------------|-----------------------------------------------------|
B|-----------------------------------------------|-----------------------------------------------------|
G|----------%-------%-------%--------------------|----------%-------%-------%------------%-------------|
D|----------%-------%-------%--------------------|----------%-------%-------%------------%-------------|
A|-5----------------------------2-----4-----5----|-4----------------------------2------------4----5----|
E|-3----3-------3-------3------------------------|-2----2-------2-------2------------2-----------------|


E|-----------------------------------------------|-----------------------------------------------------|
B|-----------------------------------------------|-----------------------------------------------------|
G|----------%-------%-------%--------------------|----------%-------%-------%------------%-------------|
D|----------%-------%-------%--------------------|----------%-------%-------%------------%-------------|
A|-5----------------------------2-----4-----5----|-4----------------------------2------------4----5----|
E|-3----3-------3-------3------------------------|-2----2-------2-------2------------2-----------------|


E|-----------------------------------------------|-----------------------------------------------------|
B|-----------------------------------------------|-----------------------------------------------------|
G|----------%-------%-------%--------------------|----------%-------%-------%------------%-------------|
D|----------%-------%-------%--------------------|----------%-------%-------%------------%-------------|
A|-5----------------------------2-----4-----5----|-5----------------------------3------------5----6----|
E|-3----3-------3-------3------------------------|-3----3-------3-------3------------3-----------------|


E|-----------------------------------------------|-----------------------------------------------------|
B|-----------------------------------------------|-----------------------------------------------------|
G|----------%-------%-------%--------------------|----------%-------%-------%------------%-------------|
D|----------%-------%-------%--------------------|----------%-------%-------%------------%-------------|
A|-6----------------------------3-----5-----6----|-5----------------------------3------------5----6----|
E|-4----4-------4-------4------------------------|-3----3-------3-------3------------3-----------------|


E|-----------------------------------------------|-----------------------------------------------------|
B|-----------------------------------------------|-----------------------------------------------------|
G|----------%-------%-------%--------------------|----------%-------%-------%------------%-------------|
D|----------%-------%-------%--------------------|----------%-------%-------%------------%-------------|
A|-6----------------------------3-----5-----6----|-5----------------------------3------------5----6----|
E|-4----4-------4-------4------------------------|-3----3-------3-------3------------3-----------------|


E|-----------------------------------------------|-----------------------------------------------------|
B|-----------------------------------------------|-----------------------------------------------------|
G|----------%-------%-------%--------------------|----------%-------%-------%------------%-------------|
D|----------%-------%-------%--------------------|----------%-------%-------%------------%-------------|
A|-6----------------------------3-----5-----6----|-7----------------------------5------------7----8----|
E|-4----4-------4-------4------------------------|-5----5-------5-------5------------5-----------------|


E|-----------------------------------------------|-----------------------------------------------------|
B|-----------------------------------------------|-----------------------------------------------------|
G|----------%-------%-------%--------------------|----------%-------%-------%------------%-------------|
D|----------%-------%-------%--------------------|----------%-------%-------%------------%-------------|
A|-8----------------------------5-----7-----8----|-7----------------------------5------------7----8----|
E|-6----6-------6-------6------------------------|-5----5-------5-------5------------5-----------------|


E|-----------------------------------------------|-----------------------------------------------------|
B|-----------------------------------------------|-----------------------------------------------------|
G|----------%-------%-------%--------------------|----------%-------%-------%------------%-------------|
D|----------%-------%-------%--------------------|----------%-------%-------%------------%-------------|
A|-8----------------------------5-----7-----8----|-7----------------------------5------------7----8----|
E|-6----6-------6-------6------------------------|-5----5-------5-------5------------5-----------------|


E|-----------------------------------------------|-------------------|---------|-------------------|
B|-----------------------------------------------|-------------------|---------|-------------------|
G|----------%-------%-------%--------------------|-------------------|---------|-------------------|
D|----------%-------%-------%--------------------|--------------9----|-8-------|--------------9----|
A|-8----------------------------5-----7-----8----|-7-------7----7----|-6-------|-7-------7----7----|
E|-6----6-------6-------6------------------------|-5-------5---------|---------|-5-------5---------|


E|---------|-------------------|---------|-------------------|---------|---------------------------------0-------------------------------|
B|---------|-------------------|---------|-------------------|---------|-------------------------0---------------0-----------------------|
G|---------|-------------------|---------|-------------------|---------|-----%-------%---5---%-------%-------%-------%---5---%-------%---|
D|-8-------|--------------9----|-8-------|--------------9----|-8-------|-----%---7---%-------%-------%-------%-------%-------%-------%---|
A|-6-------|-7-------7----7----|-6-------|-7-------7----7----|-6-------|-0-------------------------------------------------------7-------|
E|---------|-5-------5---------|---------|-5-------5---------|---------|-----------------------------------------------------------------|


E|---------------------------------0-------------------------------|---------------------------------0-------------------------------|
B|-------------------------0---------------0-----------------------|-------------------------0---------------0-----------------------|
G|-----%-------%---5---%-------%-------%-------%---5---%-------%---|-----%-------%---5---%-------%-------%-------%---5---%-------%---|
D|-----%---7---%-------%-------%-------%-------%-------%---7---%---|-----%---7---%-------%-------%-------%-------%-------%-------%---|
A|-6---------------------------------------------------------------|-0-------------------------------------------------------7-------|
E|-----------------------------------------------------------------|-----------------------------------------------------------------|


E|---------------------------------0-------------------------------|---------------------------------0-------------------------------|
B|-------------------------0---------------0-----------------------|-------------------------0---------------0-----------------------|
G|-----%-------%---5---%-------%-------%-------%---5---%-------%---|-----%-------%---5---%-------%-------%-------%---5---%-------%---|
D|-----%---7---%-------%-------%-------%-------%-------%---7---%---|-----%---7---%-------%-------%-------%-------%-------%-------%---|
A|-6---------------------------------------------------------------|-0-------------------------------------------------------7-------|
E|-----------------------------------------------------------------|-----------------------------------------------------------------|


E|---------------------------------0-------------------------------|---------------------------------0-------------------------------|
B|-------------------------0---------------0-----------------------|-------------------------0---------------0-----------------------|
G|-----%-------%---5---%-------%-------%-------%---5---%-------%---|-----%-------%---5---%-------%-------%-------%---5---%-------%---|
D|-----%---7---%-------%-------%-------%-------%-------%---7---%---|-----%---7---%-------%-------%-------%-------%-------%-------%---|
A|-6---------------------------------------------------------------|-0-------------------------------------------------------7-------|
E|-----------------------------------------------------------------|-----------------------------------------------------------------|


E|---------------------------------0-------------------------------|-------------------------1-------------------------------1-------|
B|-------------------------0---------------0-----------------------|-----------------3-------------------------------3---------------|
G|-----%-------%---5---%-------%-------%-------%---5---%-------%---|-----%---2---%-------%-------%-------%---3---%-------%-------%---|
D|-----%---7---%-------%-------%-------%-------%-------%---7---%---|-0---%-------%-------%-------%---0---%-------%-------%-------%---|
A|-6---------------------------------------------------------------|-----------------------------------------------------------------|
E|-----------------------------------------------------------------|-----------------------------------------------------------------|


E|-------------------------1-------------------------------5-------|-------------------------1-------------------------------1-------|
B|-----------------3-------------------------------3---------------|-----------------3-------------------------------3---------------|
G|-----%---4---%-------%-------%-------%---5---%-------%-------%---|-----%---2---%-------%-------%-------%---3---%-------%-------%---|
D|-0---%-------%-------%-------%---0---%-------%-------%-------%---|-0---%-------%-------%-------%---0---%-------%-------%-------%---|
A|-----------------------------------------------------------------|-----------------------------------------------------------------|
E|-----------------------------------------------------------------|-----------------------------------------------------------------|


E|-------------------------1-------------------------------5-------|-------------------------1-------------------------------1-------|
B|-----------------3-------------------------------3---------------|-----------------3-------------------------------3---------------|
G|-----%---4---%-------%-------%-------%---5---%-------%-------%---|-----%---2---%-------%-------%-------%---3---%-------%-------%---|
D|-0---%-------%-------%-------%---0---%-------%-------%-------%---|-0---%-------%-------%-------%---0---%-------%-------%-------%---|
A|-----------------------------------------------------------------|-----------------------------------------------------------------|
E|-----------------------------------------------------------------|-----------------------------------------------------------------|


E|-------------------------1-------------------------------5-------|-------------------------1-------------------------------1-------|
B|-----------------3-------------------------------3---------------|-----------------3-------------------------------3---------------|
G|-----%---4---%-------%-------%-------%---5---%-------%-------%---|-----%---2---%-------%-------%-------%---3---%-------%-------%---|
D|-0---%-------%-------%-------%---0---%-------%-------%-------%---|-0---%-------%-------%-------%---0---%-------%-------%-------%---|
A|-----------------------------------------------------------------|-----------------------------------------------------------------|
E|-----------------------------------------------------------------|-----------------------------------------------------------------|


E|-------------------------1-----------------3-----|-3-------|---------------------------------|
B|-----------------3--------------------4----------|---------|---------------------------------|
G|-----%---4---%-------%-------%---5---------------|---------|---------------------------------|
D|-0---%-------%-------%-------%-------------------|---------|-5----4----4----4----4-----5-----|
A|-------------------------------------------------|---------|-5----4----4----4----4-----5-----|
E|-------------------------------------------------|---------|-3----2----2----2----2-----3-----|


E|--------------------|---------------------------------|----------------------|---------------------------------|
B|--------------------|---------------------------------|----------------------|---------------------------------|
G|-------9------------|---------------------------------|-----%---%------------|---------------------------------|
D|-2-----9-----2------|-5----4----4----4----4-----5-----|-2---%---%----2-------|-5----4----4----4----4-----5-----|
A|-2-----7-----2------|-5----4----4----4----4-----5-----|-2------------2-------|-5----4----4----4----4-----5-----|
E|-0-----------0------|-3----2----2----2----2-----3-----|-0------------0-------|-3----2----2----2----2-----3-----|


E|--------------------|---------------------------------|----------------------|---------------------------------|
B|--------------------|---------------------------------|----------------------|---------------------------------|
G|-------9------------|---------------------------------|-----%---%------------|---------------------------------|
D|-2-----9-----2------|-5----4----4----4----4-----5-----|-2---%---%----2-------|-5----4----4----4----4-----5-----|
A|-2-----7-----2------|-5----4----4----4----4-----5-----|-2------------2-------|-5----4----4----4----4-----5-----|
E|-0-----------0------|-3----2----2----2----2-----3-----|-0------------0-------|-3----2----2----2----2-----3-----|


E|--------------------|---------------------------------|----------------------|---------------------------------|
B|--------------------|---------------------------------|----------------------|---------------------------------|
G|-------9------------|---------------------------------|-----%---%------------|---------------------------------|
D|-2-----9-----2------|-5----4----4----4----4-----5-----|-2---%---%----2-------|-5----4----4----4----4-----5-----|
A|-2-----7-----2------|-5----4----4----4----4-----5-----|-2------------2-------|-5----4----4----4----4-----5-----|
E|-0-----------0------|-3----2----2----2----2-----3-----|-0------------0-------|-3----2----2----2----2-----3-----|


E|--------------------|---------------------------------|----------------------|---------------------------------|
B|--------------------|---------------------------------|----------------------|---------------------------------|
G|-------9------------|---------------------------------|-----%---%------------|---------------------------------|
D|-2-----9-----2------|-5----4----4----4----4-----5-----|-2---%---%----2-------|-5----4----4----4----4-----5-----|
A|-2-----7-----2------|-5----4----4----4----4-----5-----|-2------------2-------|-5----4----4----4----4-----5-----|
E|-0-----------0------|-3----2----2----2----2-----3-----|-0------------0-------|-3----2----2----2----2-----3-----|


E|--------------------|---------------------------------|----------------------|---------------------------------|
B|--------------------|---------------------------------|----------------------|---------------------------------|
G|-------9------------|---------------------------------|-----%---%------------|---------------------------------|
D|-2-----9-----2------|-5----4----4----4----4-----5-----|-2---%---%----2-------|-5----4----4----4----4-----5-----|
A|-2-----7-----2------|-5----4----4----4----4-----5-----|-2------------2-------|-5----4----4----4----4-----5-----|
E|-0-----------0------|-3----2----2----2----2-----3-----|-0------------0-------|-3----2----2----2----2-----3-----|


E|--------------------|---------------------------------|----------------------|---------------------------------|
B|--------------------|---------------------------------|----------------------|---------------------------------|
G|-------9------------|---------------------------------|-----%---%------------|---------------------------------|
D|-2-----9-----2------|-5----4----4----4----4-----5-----|-2---%---%----2-------|-5----4----4----4----4-----5-----|
A|-2-----7-----2------|-5----4----4----4----4-----5-----|-2------------2-------|-5----4----4----4----4-----5-----|
E|-0-----------0------|-3----2----2----2----2-----3-----|-0------------0-------|-3----2----2----2----2-----3-----|


E|--------------------|---------------------------------|----------------------|---------------------------------|
B|--------------------|---------------------------------|----------------------|---------------------------------|
G|-------9------------|---------------------------------|-----%---%------------|---------------------------------|
D|-2-----9-----2------|-5----4----4----4----4-----5-----|-2---%---%----2-------|-5----4----4----4----4-----5-----|
A|-2-----7-----2------|-5----4----4----4----4-----5-----|-2------------2-------|-5----4----4----4----4-----5-----|
E|-0-----------0------|-3----2----2----2----2-----3-----|-0------------0-------|-3----2----2----2----2-----3-----|


E|--------------------|---------------------------------|------------------------|------------------------|
B|--------------------|---------------------------------|------------------------|------------------------|
G|-------9------------|---------------------------------|--------------4----4----|-4-----4----4----4------|
D|-2-----9-----2------|-5----4----4----4----4-----5-----|--------------4----4----|-4-----4----4----4------|
A|-2-----7-----2------|-5----4----4----4----4-----5-----|--------------2----2----|-2-----2----2----2------|
E|-0-----------0------|-3----2----2----2----2-----3-----|-0-----0----------------|------------------------|


E|---------|------5------------------------5---------|------5------------------------5---------|
B|---------|----------------6---------5---------6----|----------------6---------5---------6----|
G|-4-------|-----------7-----------------------------|-----------7-----------------------------|
D|-4-------|-0-------------------7-------------------|-0-------------------7-------------------|
A|-2-------|-----------------------------------------|-----------------------------------------|
E|---------|-----------------------------------------|-----------------------------------------|


E|------6------------------------6---------|------6------------------------6---------|
B|----------------6-------------------6----|----------------6-------------------6----|
G|-----------7--------------9--------------|-----------7--------------9--------------|
D|-0-------------------8-------------------|-0-------------------8-------------------|
A|-----------------------------------------|-----------------------------------------|
E|-----------------------------------------|-----------------------------------------|


E|------8------------------------8---------|------8------------------------8---------|
B|----------------8-------------------8----|----------------8-------------------8----|
G|-----------9--------------9--------------|-----------9--------------9--------------|
D|-0-------------------10------------------|-0-------------------10------------------|
A|-----------------------------------------|-----------------------------------------|
E|-----------------------------------------|-----------------------------------------|


E|------5------------------------5---------|------5------------------------5---------|
B|----------------6---------5---------6----|----------------6---------5---------6----|
G|-----------7-----------------------------|-----------7-----------------------------|
D|-0-------------------7-------------------|-0-------------------7-------------------|
A|-----------------------------------------|-----------------------------------------|
E|-----------------------------------------|-----------------------------------------|


E|------5------------------------5---------|------5------------------------5---------|
B|----------------6---------5---------6----|----------------6---------5---------6----|
G|-----------7-----------------------------|-----------7-----------------------------|
D|-0-------------------7-------------------|-0-------------------7-------------------|
A|-----------------------------------------|-----------------------------------------|
E|-----------------------------------------|-----------------------------------------|


E|------6------------------------6---------|------6------------------------6---------|
B|----------------6-------------------6----|----------------6-------------------6----|
G|-----------7--------------9--------------|-----------7--------------9--------------|
D|-0-------------------8-------------------|-0-------------------8-------------------|
A|-----------------------------------------|-----------------------------------------|
E|-----------------------------------------|-----------------------------------------|


E|------8------------------------8---------|------8------------------------8---------|
B|----------------8-------------------8----|----------------8-------------------8----|
G|-----------9--------------9--------------|-----------9--------------9--------------|
D|-0-------------------10------------------|-0-------------------10------------------|
A|-----------------------------------------|-----------------------------------------|
E|-----------------------------------------|-----------------------------------------|


E|------5------------------------5---------|-5------|---------|-------------------------|
B|----------------6-------------------5----|-6------|---------|-------------------------|
G|-----------7--------------7--------------|-7------|-%-------|-------------------------|
D|-0-------------------7-------------------|-0------|-%-------|-7-----5-----7-----3-----|
A|-----------------------------------------|--------|---------|-5-----3-----5-----1-----|
E|-----------------------------------------|--------|---------|-------------------------|


E|--------------------|---------|-------------------------|-------------------------------------------------------------|
B|--------------------|---------|-------------------------|-------------------------------------------------------------|
G|--------------------|---------|-------------------------|-------------------------------------------------------------|
D|-7-----10----7------|-7-------|-7-----5-----7-----3-----|-7-----10----7---7---7---7---7---7---7---7---7---7---7---7---|
A|-5-----8-----5------|-5-------|-5-----3-----5-----1-----|-5-----8-----5---5---5---5---5---5---5---5---5---5---5---5---|
E|--------------------|---------|-------------------------|-------------------------------------------------------------|


E|-------------------------------------------------------------------------------------------------|
B|-------------------------------------------------------------------------------------------------|
G|-------------------------------------------------------------------------------------------------|
D|-7---7---7---7---7---7---7---7---7---7---7---7---7---7---7---7---7---7---7---7---7---7---7---7---|
A|-5---5---5---5---5---5---5---5---5---5---5---5---5---5---5---5---5---5---5---5---5---5---5---5---|
E|-------------------------------------------------------------------------------------------------|


E|---------------|--------------------|
B|---------------|--------------------|
G|---------%-----|-------%-----%------|
D|-7-------%-----|-7-----%-----%------|
A|-5-------------|-5------------------|
E|---------------|--------------------|

    

Nézd meg a videót és ismerd meg a leggyorsabb utat, hogyan tanulhatod meg kedvenc számaid gitáron!