Hogyan játszd el gitáron a Unknown Artist – The Dark Number dalt?

Unknown Artist The Dark Number – GITÁR PRO TAB, KOTTA, AKKORDOK

Kotta típusa: Guit1

(Általában egy zeneszám minden kottája: gitár, szólógitár, basszusgitár, ének, zongora, dob stb. megtalálható az oldalon, de mindegyik egy külön bejegyzésben. Ha egy másik hangszer gitártabos kottáját keresed, akkor az oldal alján vagy a keresőben megtalálod. Sokszor a zenekar tagjának a neve lesz a kotta kategóriája.)

        


E|---------|---------|---------|---------|---------|---------|---------|---------|---------------------7-------------------|
B|-8-------|-7-------|-5-------|-5-------|-8-------|-7-------|-5-------|-5-------|----------------8---------8--------------|
G|-9-------|-7-------|-5-------|-5-------|-9-------|-7-------|-5-------|-5-------|-----------9-------------------9---------|
D|-9-------|-7-------|-5-------|-5-------|-9-------|-7-------|-5-------|-5-------|------9-----------------------------9----|
A|-7-------|-5-------|-3-------|-3-------|-7-------|-5-------|-3-------|-3-------|-7---------------------------------------|
E|---------|---------|---------|---------|---------|---------|---------|---------|-----------------------------------------|


E|---------------------5-------------------|---------------------3-------------------|
B|----------------7---------7--------------|----------------5---------5--------------|
G|-----------7-------------------7---------|-----------5-------------------5---------|
D|------7-----------------------------7----|------5-----------------------------5----|
A|-5---------------------------------------|-3---------------------------------------|
E|-----------------------------------------|-----------------------------------------|


E|-3-----------------------------------|---------------------7-------------------|---------------------5-------------------|
B|------5--------------5---------------|----------------8---------8--------------|----------------7---------7--------------|
G|-----------5--------------5----------|-----------9-------------------9---------|-----------7-------------------7---------|
D|----------------5--------------5-----|------9-----------------------------9----|------7-----------------------------7----|
A|-------------------------------------|-7---------------------------------------|-5---------------------------------------|
E|-------------------------------------|-----------------------------------------|-----------------------------------------|


E|---------------------3-------------------|-3-----------------------------------|---------------------7-------------------|
B|----------------5---------5--------------|------5--------------5---------------|----------------8---------8--------------|
G|-----------5-------------------5---------|-----------5--------------5----------|-----------9-------------------9---------|
D|------5-----------------------------5----|----------------5--------------5-----|------9-----------------------------9----|
A|-3---------------------------------------|-------------------------------------|-7---------------------------------------|
E|-----------------------------------------|-------------------------------------|-----------------------------------------|


E|---------------------5-------------------|---------------------3-------------------|
B|----------------7---------7--------------|----------------5---------5--------------|
G|-----------7-------------------7---------|-----------5-------------------5---------|
D|------7-----------------------------7----|------5-----------------------------5----|
A|-5---------------------------------------|-3---------------------------------------|
E|-----------------------------------------|-----------------------------------------|


E|-3-----------------------------------|---------------------7-------------------|---------------------5-------------------|
B|------5--------------5---------------|----------------8---------8--------------|----------------7---------7--------------|
G|-----------5--------------5----------|-----------9-------------------9---------|-----------7-------------------7---------|
D|----------------5--------------5-----|------9-----------------------------9----|------7-----------------------------7----|
A|-------------------------------------|-7---------------------------------------|-5---------------------------------------|
E|-------------------------------------|-----------------------------------------|-----------------------------------------|


E|---------------------3-------------------|-3-----------------------------------|---------------------7-------------------|
B|----------------5---------5--------------|------5--------------5---------------|----------------8---------8--------------|
G|-----------5-------------------5---------|-----------5--------------5----------|-----------9-------------------9---------|
D|------5-----------------------------5----|----------------5--------------5-----|------9-----------------------------9----|
A|-3---------------------------------------|-------------------------------------|-7---------------------------------------|
E|-----------------------------------------|-------------------------------------|-----------------------------------------|


E|---------------------5-------------------|---------------------3-------------------|
B|----------------7---------7--------------|----------------5---------5--------------|
G|-----------7-------------------7---------|-----------5-------------------5---------|
D|------7-----------------------------7----|------5-----------------------------5----|
A|-5---------------------------------------|-3---------------------------------------|
E|-----------------------------------------|-----------------------------------------|


E|-3-----------------------------------|---------------------7-------------------|---------------------5-------------------|
B|------5--------------5---------------|----------------8---------8--------------|----------------7---------7--------------|
G|-----------5--------------5----------|-----------9-------------------9---------|-----------7-------------------7---------|
D|----------------5--------------5-----|------9-----------------------------9----|------7-----------------------------7----|
A|-------------------------------------|-7---------------------------------------|-5---------------------------------------|
E|-------------------------------------|-----------------------------------------|-----------------------------------------|


E|---------------------3-------------------|-3-----------------------------------|-----------------------------------------|
B|----------------5---------5--------------|------5--------------5---------------|-----------------------------------------|
G|-----------5-------------------5---------|-----------5--------------5----------|----------------2------------------------|
D|------5-----------------------------5----|----------------5--------------5-----|------4--------------4---------4---------|
A|-3---------------------------------------|-------------------------------------|-----------4--------------4---------4----|
E|-----------------------------------------|-------------------------------------|-2---------------------------------------|


E|-----------------------------------------|-----------------------------------------|
B|----------------7------------------------|----------------3------------------------|
G|-----------7--------------7--------------|-----------4--------------4--------------|
D|------7--------------7---------7---------|------4--------------4---------4---------|
A|-5----------------------------------5----|-2----------------------------------2----|
E|-----------------------------------------|-----------------------------------------|


E|---------|-----------------------------------------|-----------------------------------------|
B|-10------|-----------------------------------------|----------------7------------------------|
G|-11------|----------------2------------------------|-----------7--------------7--------------|
D|-11------|------4--------------4---------4---------|------7--------------7---------7---------|
A|-9-------|-----------4--------------4---------4----|-5----------------------------------5----|
E|---------|-2---------------------------------------|-----------------------------------------|


E|-----------------------------------------|---------|-----------------------------------------|
B|----------------3------------------------|-10------|-----------------------------------------|
G|-----------4--------------4--------------|-11------|----------------2------------------------|
D|------4--------------4---------4---------|-11------|------4--------------4---------4---------|
A|-2----------------------------------2----|-9-------|-----------4--------------4---------4----|
E|-----------------------------------------|---------|-2---------------------------------------|


E|-----------------------------------------|-----------------------------------------|
B|----------------7------------------------|----------------3------------------------|
G|-----------7--------------7--------------|-----------4--------------4--------------|
D|------7--------------7---------7---------|------4--------------4---------4---------|
A|-5----------------------------------5----|-2----------------------------------2----|
E|-----------------------------------------|-----------------------------------------|


E|---------|-----------------------------------------|-----------------------------------------|
B|-10------|-----------------------------------------|----------------7------------------------|
G|-11------|----------------2------------------------|-----------7--------------7--------------|
D|-11------|------4--------------4---------4---------|------7--------------7---------7---------|
A|-9-------|-----------4--------------4---------4----|-5----------------------------------5----|
E|---------|-2---------------------------------------|-----------------------------------------|


E|-----------------------------------------|---------|---------------------7-------------------|
B|----------------3------------------------|-10------|----------------8---------8--------------|
G|-----------4--------------4--------------|-11------|-----------9-------------------9---------|
D|------4--------------4---------4---------|-11------|------9-----------------------------9----|
A|-2----------------------------------2----|-9-------|-7---------------------------------------|
E|-----------------------------------------|---------|-----------------------------------------|


E|---------------------5-------------------|---------------------3-------------------|
B|----------------7---------7--------------|----------------5---------5--------------|
G|-----------7-------------------7---------|-----------5-------------------5---------|
D|------7-----------------------------7----|------5-----------------------------5----|
A|-5---------------------------------------|-3---------------------------------------|
E|-----------------------------------------|-----------------------------------------|


E|-3-----------------------------------|---------------------7-------------------|---------------------5-------------------|
B|------5--------------5---------------|----------------8---------8--------------|----------------7---------7--------------|
G|-----------5--------------5----------|-----------9-------------------9---------|-----------7-------------------7---------|
D|----------------5--------------5-----|------9-----------------------------9----|------7-----------------------------7----|
A|-------------------------------------|-7---------------------------------------|-5---------------------------------------|
E|-------------------------------------|-----------------------------------------|-----------------------------------------|


E|---------------------3-------------------|-3-----------------------------------|-----------------------------------------|
B|----------------5---------5--------------|------5--------------5---------------|-----------------------------------------|
G|-----------5-------------------5---------|-----------5--------------5----------|----------------2------------------------|
D|------5-----------------------------5----|----------------5--------------5-----|------4--------------4---------4---------|
A|-3---------------------------------------|-------------------------------------|-----------4--------------4---------4----|
E|-----------------------------------------|-------------------------------------|-2---------------------------------------|


E|-----------------------------------------|-----------------------------------------|
B|----------------7------------------------|----------------3------------------------|
G|-----------7--------------7--------------|-----------4--------------4--------------|
D|------7--------------7---------7---------|------4--------------4---------4---------|
A|-5----------------------------------5----|-2----------------------------------2----|
E|-----------------------------------------|-----------------------------------------|


E|---------|-----------------------------------------|-----------------------------------------|
B|-10------|-----------------------------------------|----------------7------------------------|
G|-11------|----------------2------------------------|-----------7--------------7--------------|
D|-11------|------4--------------4---------4---------|------7--------------7---------7---------|
A|-9-------|-----------4--------------4---------4----|-5----------------------------------5----|
E|---------|-2---------------------------------------|-----------------------------------------|


E|-----------------------------------------|---------|-----------------------------------------|
B|----------------3------------------------|-10------|-----------------------------------------|
G|-----------4--------------4--------------|-11------|----------------2------------------------|
D|------4--------------4---------4---------|-11------|------4--------------4---------4---------|
A|-2----------------------------------2----|-9-------|-----------4--------------4---------4----|
E|-----------------------------------------|---------|-2---------------------------------------|


E|-----------------------------------------|-----------------------------------------|
B|----------------7------------------------|----------------3------------------------|
G|-----------7--------------7--------------|-----------4--------------4--------------|
D|------7--------------7---------7---------|------4--------------4---------4---------|
A|-5----------------------------------5----|-2----------------------------------2----|
E|-----------------------------------------|-----------------------------------------|


E|---------|---------|-----------------------------------------|-----------------------------------------|
B|-10------|-10------|-----------------------------------------|-----------------------------------------|
G|-11------|-11------|-------%---------%---------%---------%---|-------%---------%---------%---------%---|
D|-11------|-11------|-7-----%---7-----%---7-----%---7-----%---|-10----%---10----%---10----%---10----%---|
A|-9-------|-9-------|-5---------5---------5---------5---------|-8---------8---------8---------8---------|
E|---------|---------|-----------------------------------------|-----------------------------------------|


E|-----------------------------------------|-----------------------------------------|
B|-----------------------------------------|-----------------------------------------|
G|-------%---------%---------%---------%---|-------%---------%---------%---------%---|
D|-3-----%---3-----%---3-----%---3-----%---|-5-----%---5-----%---5-----%---5-----%---|
A|-1---------1---------1---------1---------|-3---------3---------3---------3---------|
E|-----------------------------------------|-----------------------------------------|


E|-----------------------------------------|-----------------------------------------|
B|-----------------------------------------|-----------------------------------------|
G|-------%---------%---------%---------%---|-------%---------%---------%---------%---|
D|-2-----%---2-----%---2-----%---2-----%---|-3-----%---3-----%---3-----%---3-----%---|
A|-0---------0---------0---------0---------|-1---------1---------1---------1---------|
E|-----------------------------------------|-----------------------------------------|


E|-----------------------------------------|-----------------------------------------|
B|-----------------------------------------|-----------------------------------------|
G|-------%---------%---------%---------%---|-------%---------%---------%---------%---|
D|-------%---------%---------%---------%---|-5-----%---5-----%---5-----%---5-----%---|
A|-5---------5---------5---------5---------|-3---------3---------3---------3---------|
E|-3---------3---------3---------3---------|-----------------------------------------|


E|-----------------------------------------|-----------------------------------------|
B|-----------------------------------------|-----------------------------------------|
G|-------%---------%---------%---------%---|-------%---------%---------%---------%---|
D|-7-----%---7-----%---7-----%---7-----%---|-10----%---10----%---10----%---10----%---|
A|-5---------5---------5---------5---------|-8---------8---------8---------8---------|
E|-----------------------------------------|-----------------------------------------|


E|-----------------------------------------|-----------------------------------------|
B|-----------------------------------------|-----------------------------------------|
G|-------%---------%---------%---------%---|-------%---------%---------%---------%---|
D|-3-----%---3-----%---3-----%---3-----%---|-5-----%---5-----%---5-----%---5-----%---|
A|-1---------1---------1---------1---------|-3---------3---------3---------3---------|
E|-----------------------------------------|-----------------------------------------|


E|-----------------------------------------|-----------------------------------------|
B|-----------------------------------------|-----------------------------------------|
G|-------%---------%---------%---------%---|-------%---------%---------%---------%---|
D|-2-----%---2-----%---2-----%---2-----%---|-3-----%---3-----%---3-----%---3-----%---|
A|-0---------0---------0---------0---------|-1---------1---------1---------1---------|
E|-----------------------------------------|-----------------------------------------|


E|-----------------------------------------|-----------------------------------------|
B|-----------------------------------------|-----------------------------------------|
G|-------%---------%---------%---------%---|-------%---------%---------%---------%---|
D|-------%---------%---------%---------%---|-5-----%---5-----%---5-----%---5-----%---|
A|-5---------5---------5---------5---------|-3---------3---------3---------3---------|
E|-3---------3---------3---------3---------|-----------------------------------------|


E|---------|---------|---------|---------|---------|---------|---------|---------|---------|
B|---------|---------|---------|---------|---------|---------|---------|---------|---------|
G|-%-------|-%-------|-%-------|-%-------|-%-------|-%-------|-%-------|-%-------|-7-------|
D|-%-------|-%-------|-%-------|-%-------|-%-------|-%-------|-%-------|-%-------|-7-------|
A|---------|---------|---------|---------|---------|---------|---------|---------|-5-------|
E|---------|---------|---------|---------|---------|---------|---------|---------|---------|


E|---------|---------|---------|---------|---------|---------|---------|-------------------------|
B|---------|---------|---------|---------|---------|---------|---------|-------------------------|
G|-10------|-3-------|-5-------|-7-------|-10------|-3-------|-5-------|-12----10----7-----5-----|
D|-10------|-3-------|-5-------|-7-------|-10------|-3-------|-5-------|-12----10----7-----5-----|
A|-8-------|-1-------|-3-------|-5-------|-8-------|-1-------|-3-------|-10----8-----5-----3-----|
E|---------|---------|---------|---------|---------|---------|---------|-------------------------|


E|---------|---------------------------------|---------------------------------|---------------------------------|
B|---------|---------------------------------|---------------------------------|---------------------------------|
G|-3-------|-9---------------9---------------|-5---------------7---------------|-9---------------9---------------|
D|-3-------|-9-----9----9----9-----9----9----|-5-----5----5----7-----7----7----|-9-----9----9----9-----9----9----|
A|-1-------|-7-----7----7----7-----7----7----|-3-----3----3----5-----5----5----|-7-----7----7----7-----7----7----|
E|---------|---------------------------------|---------------------------------|---------------------------------|


E|---------------------------------|---------------------------------|---------------------------------|
B|---------------------------------|---------------------------------|---------------------------------|
G|-5---------------2---------------|-9---------------9---------------|-5---------------7---------------|
D|-5-----5----5----2-----2----2----|-9-----9----9----9-----9----9----|-5-----5----5----7-----7----7----|
A|-3-----3----3----0-----0----0----|-7-----7----7----7-----7----7----|-3-----3----3----5-----5----5----|
E|---------------------------------|---------------------------------|---------------------------------|


E|---------------------------------|---------------------------------|---------------------------------|
B|---------------------------------|---------------------------------|---------------------------------|
G|-9---------------9---------------|-5---------------2---------------|-9---------------9---------------|
D|-9-----9----9----9-----9----9----|-5-----5----5----2-----2----2----|-9-----9----9----9-----9----9----|
A|-7-----7----7----7-----7----7----|-3-----3----3----0-----0----0----|-7-----7----7----7-----7----7----|
E|---------------------------------|---------------------------------|---------------------------------|


E|---------------------------------|---------------------------------|---------------------------------|
B|---------------------------------|---------------------------------|---------------------------------|
G|-5---------------7---------------|-9---------------9---------------|-5---------------2---------------|
D|-5-----5----5----7-----7----7----|-9-----9----9----9-----9----9----|-5-----5----5----2-----2----2----|
A|-3-----3----3----5-----5----5----|-7-----7----7----7-----7----7----|-3-----3----3----0-----0----0----|
E|---------------------------------|---------------------------------|---------------------------------|


E|---------------------------------|---------------------------------|---------------------------------|
B|---------------------------------|---------------------------------|---------------------------------|
G|-9---------------9---------------|-5---------------7---------------|-9---------------9---------------|
D|-9-----9----9----9-----9----9----|-5-----5----5----7-----7----7----|-9-----9----9----9-----9----9----|
A|-7-----7----7----7-----7----7----|-3-----3----3----5-----5----5----|-7-----7----7----7-----7----7----|
E|---------------------------------|---------------------------------|---------------------------------|


E|---------------------------------|-17----17-----------|-----------------------------------------|
B|---------------------------------|--------------17----|-15--------15--------15-------------14---|
G|-5---------------2---------------|--------------------|------16--------14--------13---14--------|
D|-5-----5----5----2-----2----2----|--------------------|-----------------------------------------|
A|-3-----3----3----0-----0----0----|--------------------|-----------------------------------------|
E|---------------------------------|--------------------|-----------------------------------------|


E|-17----17-----------|-------------------------------------|-----------------------------------------|
B|--------------17----|-15--------15--------15--------------|------14--------12-----------------------|
G|--------------------|------16--------14--------13---14----|-13--------14--------13---11-------------|
D|--------------------|-------------------------------------|-------------------------------14---12---|
A|--------------------|-------------------------------------|-----------------------------------------|
E|--------------------|-------------------------------------|-----------------------------------------|


E|-----------------------------------------------|----------------------------------------------|
B|-----------------------------------------------|-----------15---14----------------------------|
G|---------------------------13------------------|-13---14-------------14---13---16---14---13---|
D|-11----14---12---14---11--------14---12---14---|----------------------------------------------|
A|-----------------------------------------------|----------------------------------------------|
E|-----------------------------------------------|----------------------------------------------|


E|--------------------------------------|-9------9------|-9------9-------------------|
B|--------------------------------------|---------------|-------------12---10---9----|
G|-11--------11-------------------------|---------------|----------------------------|
D|------14--------14---12---14---11-----|---------------|----------------------------|
A|--------------------------------------|---------------|----------------------------|
E|--------------------------------------|---------------|----------------------------|


E|-12-----12-----|-12-----14---12---10---9----|-----------------------------------------------------------------|
B|---------------|----------------------------|-14------12----------12--14------12----------12--14------12------|
G|---------------|----------------------------|-----11------13--14----------11------13--14----------11------13--|
D|---------------|----------------------------|-----------------------------------------------------------------|
A|---------------|----------------------------|-----------------------------------------------------------------|
E|---------------|----------------------------|-----------------------------------------------------------------|


E|-----------------------------------------------------------------|-12------|-9-------|
B|-----12--14------12----------12--14------12----------12--14------|---------|---------|
G|-14----------11------13--14----------11------13--14----------11--|---------|---------|
D|-----------------------------------------------------------------|---------|---------|
A|-----------------------------------------------------------------|---------|---------|
E|-----------------------------------------------------------------|---------|---------|


E|-----------------------------------------|-----------------------------------------|
B|-----------------------------------------|-----------------------------------------|
G|-------%---------%---------%---------%---|-------%---------%---------%---------%---|
D|-7-----%---7-----%---7-----%---7-----%---|-10----%---10----%---10----%---10----%---|
A|-5---------5---------5---------5---------|-8---------8---------8---------8---------|
E|-----------------------------------------|-----------------------------------------|


E|-----------------------------------------|-----------------------------------------|
B|-----------------------------------------|-----------------------------------------|
G|-------%---------%---------%---------%---|-------%---------%---------%---------%---|
D|-3-----%---3-----%---3-----%---3-----%---|-5-----%---5-----%---5-----%---5-----%---|
A|-1---------1---------1---------1---------|-3---------3---------3---------3---------|
E|-----------------------------------------|-----------------------------------------|


E|-----------------------------------------|-----------------------------------------|
B|-----------------------------------------|-----------------------------------------|
G|-------%---------%---------%---------%---|-------%---------%---------%---------%---|
D|-7-----%---7-----%---7-----%---7-----%---|-10----%---10----%---10----%---10----%---|
A|-5---------5---------5---------5---------|-8---------8---------8---------8---------|
E|-----------------------------------------|-----------------------------------------|


E|-----------------------------------------|-----------------------------------------|
B|-----------------------------------------|-----------------------------------------|
G|-------%---------%---------%---------%---|-------%---------%---------%---------%---|
D|-3-----%---3-----%---3-----%---3-----%---|-5-----%---5-----%---5-----%---5-----%---|
A|-1---------1---------1---------1---------|-3---------3---------3---------3---------|
E|-----------------------------------------|-----------------------------------------|


E|-----------------------------------------|-----------------------------------------|
B|-----------------------------------------|-----------------------------------------|
G|-------%---------%---------%---------%---|-------%---------%---------%---------%---|
D|-7-----%---7-----%---7-----%---7-----%---|-10----%---10----%---10----%---10----%---|
A|-5---------5---------5---------5---------|-8---------8---------8---------8---------|
E|-----------------------------------------|-----------------------------------------|


E|-----------------------------------------|-----------------------------------------|
B|-----------------------------------------|-----------------------------------------|
G|-------%---------%---------%---------%---|-------%---------%---------%---------%---|
D|-3-----%---3-----%---3-----%---3-----%---|-5-----%---5-----%---5-----%---5-----%---|
A|-1---------1---------1---------1---------|-3---------3---------3---------3---------|
E|-----------------------------------------|-----------------------------------------|


E|-----------------------------------------|-----------------------------------------|
B|-----------------------------------------|-----------------------------------------|
G|-------%---------%---------%---------%---|-------%---------%---------%---------%---|
D|-7-----%---7-----%---7-----%---7-----%---|-10----%---10----%---10----%---10----%---|
A|-5---------5---------5---------5---------|-8---------8---------8---------8---------|
E|-----------------------------------------|-----------------------------------------|


E|-----------------------------------------|-----------------------------------------|
B|-----------------------------------------|-----------------------------------------|
G|-------%---------%---------%---------%---|-------%---------%---------%---------%---|
D|-3-----%---3-----%---3-----%---3-----%---|-5-----%---5-----%---5-----%---5-----%---|
A|-1---------1---------1---------1---------|-3---------3---------3---------3---------|
E|-----------------------------------------|-----------------------------------------|


E|---------------|---------|---------|---------|---------|---------|---------|---------|
B|---------------|---------|---------|---------|---------|---------|---------|---------|
G|-7-----%-------|-%-------|-%-------|-%-------|-%-------|-%-------|-%-------|-%-------|
D|-7-----%-------|-%-------|-%-------|-%-------|-%-------|-%-------|-%-------|-%-------|
A|-5-------------|---------|---------|---------|---------|---------|---------|---------|
E|---------------|---------|---------|---------|---------|---------|---------|---------|


E|---------|---------|---------|---------|---------|---------|---------|---------|---------|
B|---------|---------|---------|---------|---------|---------|---------|---------|---------|
G|-%-------|-%-------|-%-------|-%-------|-%-------|-%-------|-%-------|-%-------|-%-------|
D|-%-------|-%-------|-%-------|-%-------|-%-------|-%-------|-%-------|-%-------|-%-------|
A|---------|---------|---------|---------|---------|---------|---------|---------|---------|
E|---------|---------|---------|---------|---------|---------|---------|---------|---------|


E|---------|---------|---------|---------|---------|---------|---------|
B|---------|---------|---------|---------|---------|---------|---------|
G|-%-------|-%-------|-%-------|-%-------|-%-------|-%-------|-%-------|
D|-%-------|-%-------|-%-------|-%-------|-%-------|-%-------|-%-------|
A|---------|---------|---------|---------|---------|---------|---------|
E|---------|---------|---------|---------|---------|---------|---------|

    

Nézd meg a videót és ismerd meg a leggyorsabb utat, hogyan tanulhatod meg kedvenc számaid gitáron!