Hogyan játszd el gitáron a Unknown Artist – The Dark Number dalt?

Unknown Artist The Dark Number – GITÁR PRO TAB, KOTTA, AKKORDOK

Kotta típusa: Guit2

(Általában egy zeneszám minden kottája: gitár, szólógitár, basszusgitár, ének, zongora, dob stb. megtalálható az oldalon, de mindegyik egy külön bejegyzésben. Ha egy másik hangszer gitártabos kottáját keresed, akkor az oldal alján vagy a keresőben megtalálod. Sokszor a zenekar tagjának a neve lesz a kotta kategóriája.)

        


E|---------|---------|---------|---------|---------|---------|---------|---------|---------|
B|-8-------|-7-------|-5-------|-5-------|-8-------|-7-------|-5-------|-5-------|-8-------|
G|-9-------|-7-------|-5-------|-5-------|-9-------|-7-------|-5-------|-5-------|-9-------|
D|-9-------|-7-------|-5-------|-5-------|-9-------|-7-------|-5-------|-5-------|-9-------|
A|-7-------|-5-------|-3-------|-3-------|-7-------|-5-------|-3-------|-3-------|-7-------|
E|---------|---------|---------|---------|---------|---------|---------|---------|---------|


E|---------|---------|---------|---------|---------|---------|---------|---------------------7-------------------|
B|-7-------|-5-------|-5-------|-8-------|-7-------|-5-------|-5-------|----------------8---------8--------------|
G|-7-------|-5-------|-5-------|-9-------|-7-------|-5-------|-5-------|-----------9-------------------9---------|
D|-7-------|-5-------|-5-------|-9-------|-7-------|-5-------|-5-------|------9-----------------------------9----|
A|-5-------|-3-------|-3-------|-7-------|-5-------|-3-------|-3-------|-7---------------------------------------|
E|---------|---------|---------|---------|---------|---------|---------|-----------------------------------------|


E|---------------------5-------------------|---------------------3-------------------|
B|----------------7---------7--------------|----------------5---------5--------------|
G|-----------7-------------------7---------|-----------5-------------------5---------|
D|------7-----------------------------7----|------5-----------------------------5----|
A|-5---------------------------------------|-3---------------------------------------|
E|-----------------------------------------|-----------------------------------------|


E|-3-----------------------------------|---------------------7-------------------|---------------------5-------------------|
B|------5--------------5---------------|----------------8---------8--------------|----------------7---------7--------------|
G|-----------5--------------5----------|-----------9-------------------9---------|-----------7-------------------7---------|
D|----------------5--------------5-----|------9-----------------------------9----|------7-----------------------------7----|
A|-------------------------------------|-7---------------------------------------|-5---------------------------------------|
E|-------------------------------------|-----------------------------------------|-----------------------------------------|


E|---------------------3-------------------|-3-----------------------------------|---------------------7-------------------|
B|----------------5---------5--------------|------5--------------5---------------|----------------8---------8--------------|
G|-----------5-------------------5---------|-----------5--------------5----------|-----------9-------------------9---------|
D|------5-----------------------------5----|----------------5--------------5-----|------9-----------------------------9----|
A|-3---------------------------------------|-------------------------------------|-7---------------------------------------|
E|-----------------------------------------|-------------------------------------|-----------------------------------------|


E|---------------------5-------------------|---------------------3-------------------|
B|----------------7---------7--------------|----------------5---------5--------------|
G|-----------7-------------------7---------|-----------5-------------------5---------|
D|------7-----------------------------7----|------5-----------------------------5----|
A|-5---------------------------------------|-3---------------------------------------|
E|-----------------------------------------|-----------------------------------------|


E|-3-----------------------------------|---------------------7-------------------|---------------------5-------------------|
B|------5--------------5---------------|----------------8---------8--------------|----------------7---------7--------------|
G|-----------5--------------5----------|-----------9-------------------9---------|-----------7-------------------7---------|
D|----------------5--------------5-----|------9-----------------------------9----|------7-----------------------------7----|
A|-------------------------------------|-7---------------------------------------|-5---------------------------------------|
E|-------------------------------------|-----------------------------------------|-----------------------------------------|


E|---------------------3-------------------|-3-----------------------------------|-----------------------------------------|
B|----------------5---------5--------------|------5--------------5---------------|-----------------------------------------|
G|-----------5-------------------5---------|-----------5--------------5----------|----------------2------------------------|
D|------5-----------------------------5----|----------------5--------------5-----|------4--------------4---------4---------|
A|-3---------------------------------------|-------------------------------------|-----------4--------------4---------4----|
E|-----------------------------------------|-------------------------------------|-2---------------------------------------|


E|-----------------------------------------|-----------------------------------------|
B|----------------7------------------------|----------------3------------------------|
G|-----------7--------------7--------------|-----------4--------------4--------------|
D|------7--------------7---------7---------|------4--------------4---------4---------|
A|-5----------------------------------5----|-2----------------------------------2----|
E|-----------------------------------------|-----------------------------------------|


E|---------|-----------------------------------------|-----------------------------------------|
B|-10------|-----------------------------------------|----------------7------------------------|
G|-11------|----------------2------------------------|-----------7--------------7--------------|
D|-11------|------4--------------4---------4---------|------7--------------7---------7---------|
A|-9-------|-----------4--------------4---------4----|-5----------------------------------5----|
E|---------|-2---------------------------------------|-----------------------------------------|


E|-----------------------------------------|---------|-----------------------------------------|
B|----------------3------------------------|-10------|-----------------------------------------|
G|-----------4--------------4--------------|-11------|----------------2------------------------|
D|------4--------------4---------4---------|-11------|------4--------------4---------4---------|
A|-2----------------------------------2----|-9-------|-----------4--------------4---------4----|
E|-----------------------------------------|---------|-2---------------------------------------|


E|-----------------------------------------|-----------------------------------------|
B|----------------7------------------------|----------------3------------------------|
G|-----------7--------------7--------------|-----------4--------------4--------------|
D|------7--------------7---------7---------|------4--------------4---------4---------|
A|-5----------------------------------5----|-2----------------------------------2----|
E|-----------------------------------------|-----------------------------------------|


E|---------|-----------------------------------------|-----------------------------------------|
B|-10------|-----------------------------------------|----------------7------------------------|
G|-11------|----------------2------------------------|-----------7--------------7--------------|
D|-11------|------4--------------4---------4---------|------7--------------7---------7---------|
A|-9-------|-----------4--------------4---------4----|-5----------------------------------5----|
E|---------|-2---------------------------------------|-----------------------------------------|


E|-----------------------------------------|---------|---------------------7-------------------|
B|----------------3------------------------|-10------|----------------8---------8--------------|
G|-----------4--------------4--------------|-11------|-----------9-------------------9---------|
D|------4--------------4---------4---------|-11------|------9-----------------------------9----|
A|-2----------------------------------2----|-9-------|-7---------------------------------------|
E|-----------------------------------------|---------|-----------------------------------------|


E|---------------------5-------------------|---------------------3-------------------|
B|----------------7---------7--------------|----------------5---------5--------------|
G|-----------7-------------------7---------|-----------5-------------------5---------|
D|------7-----------------------------7----|------5-----------------------------5----|
A|-5---------------------------------------|-3---------------------------------------|
E|-----------------------------------------|-----------------------------------------|


E|-3-----------------------------------|---------------------7-------------------|---------------------5-------------------|
B|------5--------------5---------------|----------------8---------8--------------|----------------7---------7--------------|
G|-----------5--------------5----------|-----------9-------------------9---------|-----------7-------------------7---------|
D|----------------5--------------5-----|------9-----------------------------9----|------7-----------------------------7----|
A|-------------------------------------|-7---------------------------------------|-5---------------------------------------|
E|-------------------------------------|-----------------------------------------|-----------------------------------------|


E|---------------------3-------------------|-3-----------------------------------|-----------------------------------------|
B|----------------5---------5--------------|------5--------------5---------------|-----------------------------------------|
G|-----------5-------------------5---------|-----------5--------------5----------|----------------2------------------------|
D|------5-----------------------------5----|----------------5--------------5-----|------4--------------4---------4---------|
A|-3---------------------------------------|-------------------------------------|-----------4--------------4---------4----|
E|-----------------------------------------|-------------------------------------|-2---------------------------------------|


E|-----------------------------------------|-----------------------------------------|
B|----------------7------------------------|----------------3------------------------|
G|-----------7--------------7--------------|-----------4--------------4--------------|
D|------7--------------7---------7---------|------4--------------4---------4---------|
A|-5----------------------------------5----|-2----------------------------------2----|
E|-----------------------------------------|-----------------------------------------|


E|---------|-----------------------------------------|-----------------------------------------|
B|-10------|-----------------------------------------|----------------7------------------------|
G|-11------|----------------2------------------------|-----------7--------------7--------------|
D|-11------|------4--------------4---------4---------|------7--------------7---------7---------|
A|-9-------|-----------4--------------4---------4----|-5----------------------------------5----|
E|---------|-2---------------------------------------|-----------------------------------------|


E|-----------------------------------------|---------|-----------------------------------------|
B|----------------3------------------------|-10------|-----------------------------------------|
G|-----------4--------------4--------------|-11------|----------------2------------------------|
D|------4--------------4---------4---------|-11------|------4--------------4---------4---------|
A|-2----------------------------------2----|-9-------|-----------4--------------4---------4----|
E|-----------------------------------------|---------|-2---------------------------------------|


E|-----------------------------------------|-----------------------------------------|
B|----------------7------------------------|----------------3------------------------|
G|-----------7--------------7--------------|-----------4--------------4--------------|
D|------7--------------7---------7---------|------4--------------4---------4---------|
A|-5----------------------------------5----|-2----------------------------------2----|
E|-----------------------------------------|-----------------------------------------|


E|---------|---------|-----------------------------------------|-----------------------------------------|
B|-10------|-10------|-----------------------------------------|-----------------------------------------|
G|-11------|-11------|-------%---------%---------%---------%---|-------%---------%---------%---------%---|
D|-11------|-11------|-7-----%---7-----%---7-----%---7-----%---|-10----%---10----%---10----%---10----%---|
A|-9-------|-9-------|-5---------5---------5---------5---------|-8---------8---------8---------8---------|
E|---------|---------|-----------------------------------------|-----------------------------------------|


E|-----------------------------------------|-----------------------------------------|
B|-----------------------------------------|-----------------------------------------|
G|-------%---------%---------%---------%---|-------%---------%---------%---------%---|
D|-3-----%---3-----%---3-----%---3-----%---|-5-----%---5-----%---5-----%---5-----%---|
A|-1---------1---------1---------1---------|-3---------3---------3---------3---------|
E|-----------------------------------------|-----------------------------------------|


E|-----------------------------------------|-----------------------------------------|
B|-----------------------------------------|-----------------------------------------|
G|-------%---------%---------%---------%---|-------%---------%---------%---------%---|
D|-2-----%---2-----%---2-----%---2-----%---|-3-----%---3-----%---3-----%---3-----%---|
A|-0---------0---------0---------0---------|-1---------1---------1---------1---------|
E|-----------------------------------------|-----------------------------------------|


E|-----------------------------------------|-----------------------------------------|
B|-----------------------------------------|-----------------------------------------|
G|-------%---------%---------%---------%---|-------%---------%---------%---------%---|
D|-------%---------%---------%---------%---|-5-----%---5-----%---5-----%---5-----%---|
A|-5---------5---------5---------5---------|-3---------3---------3---------3---------|
E|-3---------3---------3---------3---------|-----------------------------------------|


E|-----------------------------------------|-----------------------------------------|
B|-----------------------------------------|-----------------------------------------|
G|-------%---------%---------%---------%---|-------%---------%---------%---------%---|
D|-7-----%---7-----%---7-----%---7-----%---|-10----%---10----%---10----%---10----%---|
A|-5---------5---------5---------5---------|-8---------8---------8---------8---------|
E|-----------------------------------------|-----------------------------------------|


E|-----------------------------------------|-----------------------------------------|
B|-----------------------------------------|-----------------------------------------|
G|-------%---------%---------%---------%---|-------%---------%---------%---------%---|
D|-3-----%---3-----%---3-----%---3-----%---|-5-----%---5-----%---5-----%---5-----%---|
A|-1---------1---------1---------1---------|-3---------3---------3---------3---------|
E|-----------------------------------------|-----------------------------------------|


E|-----------------------------------------|-----------------------------------------|
B|-----------------------------------------|-----------------------------------------|
G|-------%---------%---------%---------%---|-------%---------%---------%---------%---|
D|-2-----%---2-----%---2-----%---2-----%---|-3-----%---3-----%---3-----%---3-----%---|
A|-0---------0---------0---------0---------|-1---------1---------1---------1---------|
E|-----------------------------------------|-----------------------------------------|


E|-----------------------------------------|-----------------------------------------|
B|-----------------------------------------|-----------------------------------------|
G|-------%---------%---------%---------%---|-------%---------%---------%---------%---|
D|-------%---------%---------%---------%---|-5-----%---5-----%---5-----%---5-----%---|
A|-5---------5---------5---------5---------|-3---------3---------3---------3---------|
E|-3---------3---------3---------3---------|-----------------------------------------|


E|-----------------------------------------|-----------------------------------------|
B|-----------------------------------------|-10------------------10-------------8----|
G|------9----10-------------9----10--------|------9----10---7---------9----10--------|
D|-7--------------8----7--------------7----|-----------------------------------------|
A|-----------------------------------------|-----------------------------------------|
E|-----------------------------------------|-----------------------------------------|


E|-----------------------------------------|-----------------------------------------|
B|-----------------------------------------|-10------------------10-------------8----|
G|------9----10-------------9----10--------|------9----10---7---------9----10--------|
D|-7--------------8----7--------------7----|-----------------------------------------|
A|-----------------------------------------|-----------------------------------------|
E|-----------------------------------------|-----------------------------------------|


E|-----------------------------------------|-----------------------------------------|
B|-----------------------------------------|-10------------------10-------------8----|
G|------9----10-------------9----10--------|------9----10---7---------9----10--------|
D|-7--------------8----7--------------7----|-----------------------------------------|
A|-----------------------------------------|-----------------------------------------|
E|-----------------------------------------|-----------------------------------------|


E|-----------------------------------------|-----------------------------------------|
B|-----------------------------------------|-10------------------10-------------8----|
G|------9----10-------------9----10--------|------9----10---7---------9----10--------|
D|-7--------------8----7--------------7----|-----------------------------------------|
A|-----------------------------------------|-----------------------------------------|
E|-----------------------------------------|-----------------------------------------|


E|---------|---------|---------|---------|---------|---------|---------|---------|-------------------------|
B|---------|---------|---------|---------|---------|---------|---------|---------|-------------------------|
G|-7-------|-10------|-3-------|-5-------|-7-------|-10------|-3-------|-5-------|-12----10----7-----5-----|
D|-7-------|-10------|-3-------|-5-------|-7-------|-10------|-3-------|-5-------|-12----10----7-----5-----|
A|-5-------|-8-------|-1-------|-3-------|-5-------|-8-------|-1-------|-3-------|-10----8-----5-----3-----|
E|---------|---------|---------|---------|---------|---------|---------|---------|-------------------------|


E|---------|-----------------------------------------|-12------------------12-------------14---|
B|---------|------13---12-------------13---12--------|------13---12---15--------13---12--------|
G|-3-------|-11-------------12---11-------------12---|-----------------------------------------|
D|-3-------|-----------------------------------------|-----------------------------------------|
A|-1-------|-----------------------------------------|-----------------------------------------|
E|---------|-----------------------------------------|-----------------------------------------|


E|-----------------------------------------|-12------------------12-----|-14--------------------------------------|
B|------13---12-------------13---12--------|------13---12---15----------|------15--------15--------13-------------|
G|-11-------------12---11-------------12---|----------------------------|-----------14--------14--------14---12---|
D|-----------------------------------------|----------------------------|-----------------------------------------|
A|-----------------------------------------|----------------------------|-----------------------------------------|
E|-----------------------------------------|----------------------------|-----------------------------------------|


E|-----------------------------------------|---------------------------------------------------|
B|-12-----------------------13-------------|--------------------------12---13---12-------------|
G|------12---11---12---11------------------|-11------------------11------------------11---12---|
D|-------------------------------12---10---|------12---14---12---------------------------------|
A|-----------------------------------------|---------------------------------------------------|
E|-----------------------------------------|---------------------------------------------------|


E|----------------------------|-----------------------------------------|--------12--------------|
B|----------------------------|------12---13---15---12--------12---13---|-15-----------12---13---|
G|-11------------------11-----|-12-----------------------12-------------|------------------------|
D|------12---10---12----------|-----------------------------------------|------------------------|
A|----------------------------|-----------------------------------------|------------------------|
E|----------------------------|-----------------------------------------|------------------------|


E|--------------------------------------|--------------------------------------|-------------------------------------|
B|--------------------------------------|--------------------------------------|-------------------------------------|
G|-11-----12---14---12---14---12---14---|-11---12---11---9----11---9----7------|-------7-----------------7-----------|
D|--------------------------------------|--------------------------------------|-7-----------7-----9-----------9-----|
A|--------------------------------------|--------------------------------------|-------------------------------------|
E|--------------------------------------|--------------------------------------|-------------------------------------|


E|-------------------------------------|----------------------------------------------------|
B|-------------------------------------|----------------------------------------------------|
G|-------9-----------------9-----------|-11-------------------------------------------------|
D|-7-----------7-----9-----------9-----|-------10---12---10---9----10---9----7----9----7----|
A|-------------------------------------|----------------------------------------------------|
E|-------------------------------------|----------------------------------------------------|


E|--------------------------------------|------------------------|------------------------|
B|--------------------------------------|------------------------|------------------------|
G|--------------------------------------|------------------------|------------------------|
D|--------------------------------------|------------------------|------------------------|
A|-10---12---10---9----10---9----7------|-4------4----4----4-----|-7------7----7----7-----|
E|--------------------------------------|-2------2----2----2-----|-4------4----4----4-----|


E|------------------------|--------------------|------------------------|------------------------|
B|------------------------|--------------------|------------------------|------------------------|
G|------------------------|--------------------|------------------------|------------------------|
D|------------------------|--------------------|------------------------|------------------------|
A|-7------7----7----7-----|-9------9-----7-----|-4------4----4----4-----|-7------7----7----7-----|
E|-5------5----5----5-----|-7------7-----5-----|-2------2----2----2-----|-4------4----4----4-----|


E|------------------------|--------------------|------------------------|------------------------|
B|------------------------|--------------------|------------------------|------------------------|
G|------------------------|--------------------|------------------------|------------------------|
D|------------------------|--------------------|------------------------|------------------------|
A|-7------7----7----7-----|-9------11----14----|-4------4----4----4-----|-7------7----7----7-----|
E|-5------5----5----5-----|-7------9-----12----|-2------2----2----2-----|-4------4----4----4-----|


E|------------------------|--------------------|------------------------|------------------------|
B|------------------------|--------------------|------------------------|------------------------|
G|------------------------|--------------------|------------------------|------------------------|
D|------------------------|--------------------|------------------------|------------------------|
A|-7------7----7----7-----|-9------9-----7-----|-4------4----4----4-----|-7------7----7----7-----|
E|-5------5----5----5-----|-7------7-----5-----|-2------2----2----2-----|-4------4----4----4-----|


E|------------------------|--------------------|-----------------------------------------|
B|------------------------|--------------------|-----------------------------------------|
G|------------------------|--------------------|-------%---------%---------%---------%---|
D|------------------------|--------------------|-7-----%---7-----%---7-----%---7-----%---|
A|-7------7----7----7-----|-9------11----14----|-5---------5---------5---------5---------|
E|-5------5----5----5-----|-7------9-----12----|-----------------------------------------|


E|-----------------------------------------|-----------------------------------------|
B|-----------------------------------------|-----------------------------------------|
G|-------%---------%---------%---------%---|-------%---------%---------%---------%---|
D|-10----%---10----%---10----%---10----%---|-3-----%---3-----%---3-----%---3-----%---|
A|-8---------8---------8---------8---------|-1---------1---------1---------1---------|
E|-----------------------------------------|-----------------------------------------|


E|-----------------------------------------|-----------------------------------------|
B|-----------------------------------------|-----------------------------------------|
G|-------%---------%---------%---------%---|-------%---------%---------%---------%---|
D|-5-----%---5-----%---5-----%---5-----%---|-7-----%---7-----%---7-----%---7-----%---|
A|-3---------3---------3---------3---------|-5---------5---------5---------5---------|
E|-----------------------------------------|-----------------------------------------|


E|-----------------------------------------|-----------------------------------------|
B|-----------------------------------------|-----------------------------------------|
G|-------%---------%---------%---------%---|-------%---------%---------%---------%---|
D|-10----%---10----%---10----%---10----%---|-3-----%---3-----%---3-----%---3-----%---|
A|-8---------8---------8---------8---------|-1---------1---------1---------1---------|
E|-----------------------------------------|-----------------------------------------|


E|-----------------------------------------|-----------------------------------------|
B|-----------------------------------------|-----------------------------------------|
G|-------%---------%---------%---------%---|-------%---------%---------%---------%---|
D|-5-----%---5-----%---5-----%---5-----%---|-7-----%---7-----%---7-----%---7-----%---|
A|-3---------3---------3---------3---------|-5---------5---------5---------5---------|
E|-----------------------------------------|-----------------------------------------|


E|-----------------------------------------|-----------------------------------------|
B|-----------------------------------------|-----------------------------------------|
G|-------%---------%---------%---------%---|-------%---------%---------%---------%---|
D|-10----%---10----%---10----%---10----%---|-3-----%---3-----%---3-----%---3-----%---|
A|-8---------8---------8---------8---------|-1---------1---------1---------1---------|
E|-----------------------------------------|-----------------------------------------|


E|-----------------------------------------|-----------------------------------------|
B|-----------------------------------------|-----------------------------------------|
G|-------%---------%---------%---------%---|-------%---------%---------%---------%---|
D|-5-----%---5-----%---5-----%---5-----%---|-7-----%---7-----%---7-----%---7-----%---|
A|-3---------3---------3---------3---------|-5---------5---------5---------5---------|
E|-----------------------------------------|-----------------------------------------|


E|-----------------------------------------|-----------------------------------------|
B|-----------------------------------------|-----------------------------------------|
G|-------%---------%---------%---------%---|-------%---------%---------%---------%---|
D|-10----%---10----%---10----%---10----%---|-3-----%---3-----%---3-----%---3-----%---|
A|-8---------8---------8---------8---------|-1---------1---------1---------1---------|
E|-----------------------------------------|-----------------------------------------|


E|-----------------------------------------|---------------|---------|---------|---------|
B|-----------------------------------------|---------------|---------|---------|---------|
G|-------%---------%---------%---------%---|-7-----%-------|-%-------|-%-------|-%-------|
D|-5-----%---5-----%---5-----%---5-----%---|-7-----%-------|-%-------|-%-------|-%-------|
A|-3---------3---------3---------3---------|-5-------------|---------|---------|---------|
E|-----------------------------------------|---------------|---------|---------|---------|


E|---------|---------|---------|---------|---------|---------|---------|---------|---------|
B|---------|---------|---------|---------|---------|---------|---------|---------|---------|
G|-%-------|-%-------|-%-------|-%-------|-%-------|-%-------|-%-------|-%-------|-%-------|
D|-%-------|-%-------|-%-------|-%-------|-%-------|-%-------|-%-------|-%-------|-%-------|
A|---------|---------|---------|---------|---------|---------|---------|---------|---------|
E|---------|---------|---------|---------|---------|---------|---------|---------|---------|


E|---------|---------|---------|---------|---------|---------|---------|---------|---------|
B|---------|---------|---------|---------|---------|---------|---------|---------|---------|
G|-%-------|-%-------|-%-------|-%-------|-%-------|-%-------|-%-------|-%-------|-%-------|
D|-%-------|-%-------|-%-------|-%-------|-%-------|-%-------|-%-------|-%-------|-%-------|
A|---------|---------|---------|---------|---------|---------|---------|---------|---------|
E|---------|---------|---------|---------|---------|---------|---------|---------|---------|


E|---------|---------|
B|---------|---------|
G|-%-------|-%-------|
D|-%-------|-%-------|
A|---------|---------|
E|---------|---------|

    

Nézd meg a videót és ismerd meg a leggyorsabb utat, hogyan tanulhatod meg kedvenc számaid gitáron!