Hogyan játszd el gitáron a Unknown Artist – The Dark Number dalt?

Unknown Artist The Dark Number – GITÁR PRO TAB, KOTTA, AKKORDOK

Kotta típusa: Voice

(Általában egy zeneszám minden kottája: gitár, szólógitár, basszusgitár, ének, zongora, dob stb. megtalálható az oldalon, de mindegyik egy külön bejegyzésben. Ha egy másik hangszer gitártabos kottáját keresed, akkor az oldal alján vagy a keresőben megtalálod. Sokszor a zenekar tagjának a neve lesz a kotta kategóriája.)

        


E|---------|---------|---------|---------|---------|---------|---------|---------|---------|
B|---------|---------|---------|---------|---------|---------|---------|---------|---------|
G|-%-------|-%-------|-%-------|-%-------|-%-------|-%-------|-%-------|-%-------|-%-------|
D|-%-------|-%-------|-%-------|-%-------|-%-------|-%-------|-%-------|-%-------|-%-------|
A|---------|---------|---------|---------|---------|---------|---------|---------|---------|
E|---------|---------|---------|---------|---------|---------|---------|---------|---------|


E|---------|---------|---------|---------|---------|---------|---------|-------15----14----12----|
B|---------|---------|---------|---------|---------|---------|---------|-------------------------|
G|-%-------|-%-------|-%-------|-%-------|-%-------|-%-------|-%-------|-%-----------------------|
D|-%-------|-%-------|-%-------|-%-------|-%-------|-%-------|-%-------|-%-----------------------|
A|---------|---------|---------|---------|---------|---------|---------|-------------------------|
E|---------|---------|---------|---------|---------|---------|---------|-------------------------|


E|-12----10----12-----|-10---8----7-----8------|-8-------------|-------15----14----12----|
B|--------------------|------------------------|---------------|-------------------------|
G|--------------------|------------------------|-------%-------|-%-----------------------|
D|--------------------|------------------------|-------%-------|-%-----------------------|
A|--------------------|------------------------|---------------|-------------------------|
E|--------------------|------------------------|---------------|-------------------------|


E|-12----10----12-----|-10---8----7-----8------|-8-------------|-------12----14----15----|
B|--------------------|------------------------|---------------|-------------------------|
G|--------------------|------------------------|-------%-------|-%-----------------------|
D|--------------------|------------------------|-------%-------|-%-----------------------|
A|--------------------|------------------------|---------------|-------------------------|
E|--------------------|------------------------|---------------|-------------------------|


E|-17-----15-----14-----|-12---10---12----10----7-----|-8-------------|-------15----14----12----|
B|----------------------|-----------------------------|---------------|-------------------------|
G|----------------------|-----------------------------|--------%------|-%-----------------------|
D|----------------------|-----------------------------|--------%------|-%-----------------------|
A|----------------------|-----------------------------|---------------|-------------------------|
E|----------------------|-----------------------------|---------------|-------------------------|


E|-12----10----12-----|-10---8----7-----8------|-8-------------|---------|---------|
B|--------------------|------------------------|---------------|---------|---------|
G|--------------------|------------------------|-------%-------|-%-------|-%-------|
D|--------------------|------------------------|-------%-------|-%-------|-%-------|
A|--------------------|------------------------|---------------|---------|---------|
E|--------------------|------------------------|---------------|---------|---------|


E|---------|---------|---------|---------|---------|---------|-------14----12----9-----|
B|---------|---------|---------|---------|---------|---------|-------------------------|
G|-%-------|-%-------|-%-------|-%-------|-%-------|-%-------|-%-----------------------|
D|-%-------|-%-------|-%-------|-%-------|-%-------|-%-------|-%-----------------------|
A|---------|---------|---------|---------|---------|---------|-------------------------|
E|---------|---------|---------|---------|---------|---------|-------------------------|


E|-10-----9----7----9-----|-7------5-----4-----|-2-------------|-------14----12----9-----|
B|------------------------|--------------------|---------------|-------------------------|
G|------------------------|--------------------|--------%------|-%-----------------------|
D|------------------------|--------------------|--------%------|-%-----------------------|
A|------------------------|--------------------|---------------|-------------------------|
E|------------------------|--------------------|---------------|-------------------------|


E|-10-----9----7----9-----|-7------5-----4-----|-7-------------|-------15----14----12----|
B|------------------------|--------------------|---------------|-------------------------|
G|------------------------|--------------------|--------%------|-%-----------------------|
D|------------------------|--------------------|--------%------|-%-----------------------|
A|------------------------|--------------------|---------------|-------------------------|
E|------------------------|--------------------|---------------|-------------------------|


E|-12----10----12-----|-10---8----7-----8------|-8-------------|-------15----14----12----|
B|--------------------|------------------------|---------------|-------------------------|
G|--------------------|------------------------|-------%-------|-%-----------------------|
D|--------------------|------------------------|-------%-------|-%-----------------------|
A|--------------------|------------------------|---------------|-------------------------|
E|--------------------|------------------------|---------------|-------------------------|


E|-12----10----12-----|-10---8----7-----8------|-8-------------|---------|---------|
B|--------------------|------------------------|---------------|---------|---------|
G|--------------------|------------------------|-------%-------|-%-------|-%-------|
D|--------------------|------------------------|-------%-------|-%-------|-%-------|
A|--------------------|------------------------|---------------|---------|---------|
E|--------------------|------------------------|---------------|---------|---------|


E|---------|---------|-------14----12----9-----|-10-----9----7----9-----|-7------5-----4-----|
B|---------|---------|-------------------------|------------------------|--------------------|
G|-%-------|-%-------|-%-----------------------|------------------------|--------------------|
D|-%-------|-%-------|-%-----------------------|------------------------|--------------------|
A|---------|---------|-------------------------|------------------------|--------------------|
E|---------|---------|-------------------------|------------------------|--------------------|


E|-2-------------|-------14----12----9-----|-10-----9----7----9-----|-7------5-----4-----|
B|---------------|-------------------------|------------------------|--------------------|
G|--------%------|-%-----------------------|------------------------|--------------------|
D|--------%------|-%-----------------------|------------------------|--------------------|
A|---------------|-------------------------|------------------------|--------------------|
E|---------------|-------------------------|------------------------|--------------------|


E|-7-------------|---------|---------|---------|---------|---------|---------|---------|
B|---------------|---------|---------|---------|---------|---------|---------|---------|
G|--------%------|-%-------|-%-------|-%-------|-%-------|-%-------|-%-------|-%-------|
D|--------%------|-%-------|-%-------|-%-------|-%-------|-%-------|-%-------|-%-------|
A|---------------|---------|---------|---------|---------|---------|---------|---------|
E|---------------|---------|---------|---------|---------|---------|---------|---------|


E|---------|---------|---------|---------|---------|---------|---------|---------|---------|
B|---------|---------|---------|---------|---------|---------|---------|---------|---------|
G|-%-------|-%-------|-%-------|-%-------|-%-------|-%-------|-%-------|-%-------|-%-------|
D|-%-------|-%-------|-%-------|-%-------|-%-------|-%-------|-%-------|-%-------|-%-------|
A|---------|---------|---------|---------|---------|---------|---------|---------|---------|
E|---------|---------|---------|---------|---------|---------|---------|---------|---------|


E|---------|---------|---------|---------|---------|---------|---------|---------|---------|
B|---------|---------|---------|---------|---------|---------|---------|---------|---------|
G|-%-------|-%-------|-%-------|-%-------|-%-------|-%-------|-%-------|-%-------|-%-------|
D|-%-------|-%-------|-%-------|-%-------|-%-------|-%-------|-%-------|-%-------|-%-------|
A|---------|---------|---------|---------|---------|---------|---------|---------|---------|
E|---------|---------|---------|---------|---------|---------|---------|---------|---------|


E|---------|---------|---------|---------|---------|---------|---------|---------|---------|
B|---------|---------|---------|---------|---------|---------|---------|---------|---------|
G|-%-------|-%-------|-%-------|-%-------|-%-------|-%-------|-%-------|-%-------|-%-------|
D|-%-------|-%-------|-%-------|-%-------|-%-------|-%-------|-%-------|-%-------|-%-------|
A|---------|---------|---------|---------|---------|---------|---------|---------|---------|
E|---------|---------|---------|---------|---------|---------|---------|---------|---------|


E|---------|---------|---------|---------|---------|---------|---------|---------|---------|
B|---------|---------|---------|---------|---------|---------|---------|---------|---------|
G|-%-------|-%-------|-%-------|-%-------|-%-------|-%-------|-%-------|-%-------|-%-------|
D|-%-------|-%-------|-%-------|-%-------|-%-------|-%-------|-%-------|-%-------|-%-------|
A|---------|---------|---------|---------|---------|---------|---------|---------|---------|
E|---------|---------|---------|---------|---------|---------|---------|---------|---------|


E|---------|---------|---------|---------|---------|---------|---------|---------|---------|
B|---------|---------|---------|---------|---------|---------|---------|---------|---------|
G|-%-------|-%-------|-%-------|-%-------|-%-------|-%-------|-%-------|-%-------|-%-------|
D|-%-------|-%-------|-%-------|-%-------|-%-------|-%-------|-%-------|-%-------|-%-------|
A|---------|---------|---------|---------|---------|---------|---------|---------|---------|
E|---------|---------|---------|---------|---------|---------|---------|---------|---------|


E|---------|---------|---------|---------|---------|---------|---------|---------|---------|
B|---------|---------|---------|---------|---------|---------|---------|---------|---------|
G|-%-------|-%-------|-%-------|-%-------|-%-------|-%-------|-%-------|-%-------|-%-------|
D|-%-------|-%-------|-%-------|-%-------|-%-------|-%-------|-%-------|-%-------|-%-------|
A|---------|---------|---------|---------|---------|---------|---------|---------|---------|
E|---------|---------|---------|---------|---------|---------|---------|---------|---------|


E|---------|---------|---------|---------|---------|---------|---------|---------|---------|
B|---------|---------|---------|---------|---------|---------|---------|---------|---------|
G|-%-------|-%-------|-%-------|-%-------|-%-------|-%-------|-%-------|-%-------|-%-------|
D|-%-------|-%-------|-%-------|-%-------|-%-------|-%-------|-%-------|-%-------|-%-------|
A|---------|---------|---------|---------|---------|---------|---------|---------|---------|
E|---------|---------|---------|---------|---------|---------|---------|---------|---------|


E|---------|---------|---------|---------|---------|---------|---------|---------|---------|
B|---------|---------|---------|---------|---------|---------|---------|---------|---------|
G|-%-------|-%-------|-%-------|-%-------|-%-------|-%-------|-%-------|-%-------|-%-------|
D|-%-------|-%-------|-%-------|-%-------|-%-------|-%-------|-%-------|-%-------|-%-------|
A|---------|---------|---------|---------|---------|---------|---------|---------|---------|
E|---------|---------|---------|---------|---------|---------|---------|---------|---------|


E|---------|---------|---------|---------|---------|---------|---------|---------|---------|
B|---------|---------|---------|---------|---------|---------|---------|---------|---------|
G|-%-------|-%-------|-%-------|-%-------|-%-------|-%-------|-%-------|-%-------|-%-------|
D|-%-------|-%-------|-%-------|-%-------|-%-------|-%-------|-%-------|-%-------|-%-------|
A|---------|---------|---------|---------|---------|---------|---------|---------|---------|
E|---------|---------|---------|---------|---------|---------|---------|---------|---------|


E|---------|---------|---------|---------|---------|---------|---------|---------|---------|
B|---------|---------|---------|---------|---------|---------|---------|---------|---------|
G|-%-------|-%-------|-%-------|-%-------|-%-------|-%-------|-%-------|-%-------|-%-------|
D|-%-------|-%-------|-%-------|-%-------|-%-------|-%-------|-%-------|-%-------|-%-------|
A|---------|---------|---------|---------|---------|---------|---------|---------|---------|
E|---------|---------|---------|---------|---------|---------|---------|---------|---------|


E|---------|---------|---------|---------|---------|---------|---------|---------|---------|
B|---------|---------|---------|---------|---------|---------|---------|---------|---------|
G|-%-------|-%-------|-%-------|-%-------|-%-------|-%-------|-%-------|-%-------|-%-------|
D|-%-------|-%-------|-%-------|-%-------|-%-------|-%-------|-%-------|-%-------|-%-------|
A|---------|---------|---------|---------|---------|---------|---------|---------|---------|
E|---------|---------|---------|---------|---------|---------|---------|---------|---------|


E|---------|
B|---------|
G|-%-------|
D|-%-------|
A|---------|
E|---------|

    

Nézd meg a videót és ismerd meg a leggyorsabb utat, hogyan tanulhatod meg kedvenc számaid gitáron!