Hogyan játszd el gitáron a Unknown Artist – The Darkest Sky dalt?

Unknown Artist The Darkest Sky – GITÁR PRO TAB, KOTTA, AKKORDOK

Kotta típusa: Keys1

(Általában egy zeneszám minden kottája: gitár, szólógitár, basszusgitár, ének, zongora, dob stb. megtalálható az oldalon, de mindegyik egy külön bejegyzésben. Ha egy másik hangszer gitártabos kottáját keresed, akkor az oldal alján vagy a keresőben megtalálod. Sokszor a zenekar tagjának a neve lesz a kotta kategóriája.)

        


E|---------|---------|---------|---------|---------|---------|---------|---------|---------|
B|---------|---------|---------|---------|---------|---------|---------|---------|---------|
G|-%-------|-%-------|-%-------|-%-------|-%-------|-%-------|-%-------|-%-------|-%-------|
D|-%-------|-%-------|-%-------|-%-------|-%-------|-%-------|-%-------|-%-------|-%-------|
A|---------|---------|---------|---------|---------|---------|---------|---------|---------|
E|---------|---------|---------|---------|---------|---------|---------|---------|---------|


E|---------|---------|---------|---------|---------|---------|---------|---------|---------|
B|---------|---------|---------|---------|---------|---------|---------|---------|---------|
G|-%-------|-%-------|-%-------|-%-------|-%-------|-%-------|-%-------|-%-------|-%-------|
D|-%-------|-%-------|-%-------|-%-------|-%-------|-%-------|-%-------|-%-------|-%-------|
A|---------|---------|---------|---------|---------|---------|---------|---------|---------|
E|---------|---------|---------|---------|---------|---------|---------|---------|---------|


E|---------|---------|---------|---------|---------|---------|---------|---------|---------|
B|---------|---------|---------|---------|---------|---------|---------|---------|---------|
G|-%-------|-%-------|-%-------|-%-------|-%-------|-%-------|-%-------|-%-------|-%-------|
D|-%-------|-%-------|-%-------|-%-------|-%-------|-%-------|-%-------|-%-------|-%-------|
A|---------|---------|---------|---------|---------|---------|---------|---------|---------|
E|---------|---------|---------|---------|---------|---------|---------|---------|---------|


E|---------|---------|---------|---------|---------|---------|---------|---------|---------|
B|---------|---------|---------|---------|---------|---------|---------|---------|---------|
G|-%-------|-%-------|-%-------|-%-------|-%-------|-%-------|-%-------|-%-------|-%-------|
D|-%-------|-%-------|-%-------|-%-------|-%-------|-%-------|-%-------|-%-------|-%-------|
A|---------|---------|---------|---------|---------|---------|---------|---------|---------|
E|---------|---------|---------|---------|---------|---------|---------|---------|---------|


E|---------|---------|---------|---------|---------|---------|---------|---------|---------|
B|---------|---------|---------|---------|---------|---------|---------|---------|---------|
G|-%-------|-%-------|-%-------|-%-------|-%-------|-%-------|-%-------|-%-------|-%-------|
D|-%-------|-%-------|-%-------|-%-------|-%-------|-%-------|-%-------|-%-------|-%-------|
A|---------|---------|---------|---------|---------|---------|---------|---------|---------|
E|---------|---------|---------|---------|---------|---------|---------|---------|---------|


E|---------|---------|---------|---------|---------|---------|---------|---------|---------|
B|---------|---------|---------|---------|---------|---------|---------|---------|---------|
G|-%-------|-%-------|-%-------|-%-------|-%-------|-%-------|-%-------|-%-------|-%-------|
D|-%-------|-%-------|-%-------|-%-------|-%-------|-%-------|-%-------|-%-------|-%-------|
A|---------|---------|---------|---------|---------|---------|---------|---------|---------|
E|---------|---------|---------|---------|---------|---------|---------|---------|---------|


E|---------|---------|---------|---------|---------|---------|---------|---------|---------|
B|---------|---------|---------|---------|---------|---------|---------|---------|---------|
G|-%-------|-%-------|-%-------|-%-------|-%-------|-%-------|-%-------|-%-------|-%-------|
D|-%-------|-%-------|-%-------|-%-------|-%-------|-%-------|-%-------|-%-------|-%-------|
A|---------|---------|---------|---------|---------|---------|---------|---------|---------|
E|---------|---------|---------|---------|---------|---------|---------|---------|---------|


E|---------|---------|---------|---------|---------|---------|---------|---------|---------|
B|---------|---------|---------|---------|---------|---------|---------|---------|---------|
G|-%-------|-%-------|-%-------|-%-------|-%-------|-%-------|-%-------|-%-------|-%-------|
D|-%-------|-%-------|-%-------|-%-------|-%-------|-%-------|-%-------|-%-------|-%-------|
A|---------|---------|---------|---------|---------|---------|---------|---------|---------|
E|---------|---------|---------|---------|---------|---------|---------|---------|---------|


E|---------|---------|---------|---------|---------|---------|---------|---------|---------|
B|---------|---------|---------|---------|---------|---------|---------|---------|---------|
G|-%-------|-%-------|-%-------|-%-------|-%-------|-%-------|-%-------|-%-------|-%-------|
D|-%-------|-%-------|-%-------|-%-------|-%-------|-%-------|-%-------|-%-------|-%-------|
A|---------|---------|---------|---------|---------|---------|---------|---------|---------|
E|---------|---------|---------|---------|---------|---------|---------|---------|---------|


E|---------|---------|---------|---------|---------|---------|---------|---------|---------|
B|---------|---------|---------|---------|---------|---------|---------|---------|---------|
G|-%-------|-%-------|-%-------|-%-------|-%-------|-%-------|-%-------|-%-------|-%-------|
D|-%-------|-%-------|-%-------|-%-------|-%-------|-%-------|-%-------|-%-------|-%-------|
A|---------|---------|---------|---------|---------|---------|---------|---------|---------|
E|---------|---------|---------|---------|---------|---------|---------|---------|---------|


E|---------|---------|---------|---------|---------|---------|---------|---------|---------|
B|---------|---------|---------|---------|---------|---------|---------|---------|---------|
G|-%-------|-%-------|-%-------|-%-------|-%-------|-%-------|-%-------|-%-------|-%-------|
D|-%-------|-%-------|-%-------|-%-------|-%-------|-%-------|-%-------|-%-------|-%-------|
A|---------|---------|---------|---------|---------|---------|---------|---------|---------|
E|---------|---------|---------|---------|---------|---------|---------|---------|---------|


E|---------|---------|---------|---------|---------|---------|---------|---------|---------|
B|---------|---------|---------|---------|---------|---------|---------|---------|---------|
G|-%-------|-%-------|-%-------|-%-------|-%-------|-%-------|-%-------|-%-------|-%-------|
D|-%-------|-%-------|-%-------|-%-------|-%-------|-%-------|-%-------|-%-------|-%-------|
A|---------|---------|---------|---------|---------|---------|---------|---------|---------|
E|---------|---------|---------|---------|---------|---------|---------|---------|---------|


E|---------|---------|---------|---------|---------|---------|---------|---------|---------|
B|---------|---------|---------|---------|---------|---------|---------|---------|---------|
G|-%-------|-%-------|-%-------|-%-------|-%-------|-%-------|-%-------|-%-------|-%-------|
D|-%-------|-%-------|-%-------|-%-------|-%-------|-%-------|-%-------|-%-------|-%-------|
A|---------|---------|---------|---------|---------|---------|---------|---------|---------|
E|---------|---------|---------|---------|---------|---------|---------|---------|---------|


E|---------|---------|---------|---------|---------|---------|---------|---------|---------|
B|---------|---------|---------|---------|---------|---------|---------|---------|---------|
G|-%-------|-%-------|-%-------|-%-------|-%-------|-%-------|-%-------|-%-------|-%-------|
D|-%-------|-%-------|-%-------|-%-------|-%-------|-%-------|-%-------|-%-------|-%-------|
A|---------|---------|---------|---------|---------|---------|---------|---------|---------|
E|---------|---------|---------|---------|---------|---------|---------|---------|---------|


E|---------|---------|---------|---------|---------|---------|---------|---------|---------|
B|---------|---------|---------|---------|---------|---------|---------|---------|---------|
G|-%-------|-%-------|-%-------|-%-------|-%-------|-%-------|-%-------|-%-------|-%-------|
D|-%-------|-%-------|-%-------|-%-------|-%-------|-%-------|-%-------|-%-------|-%-------|
A|---------|---------|---------|---------|---------|---------|---------|---------|---------|
E|---------|---------|---------|---------|---------|---------|---------|---------|---------|


E|---------|---------|---------|---------|---------|---------|---------|---------|---------|
B|---------|---------|---------|---------|---------|---------|---------|---------|---------|
G|-%-------|-%-------|-%-------|-%-------|-%-------|-%-------|-%-------|-%-------|-%-------|
D|-%-------|-%-------|-%-------|-%-------|-%-------|-%-------|-%-------|-%-------|-%-------|
A|---------|---------|---------|---------|---------|---------|---------|---------|---------|
E|---------|---------|---------|---------|---------|---------|---------|---------|---------|


E|---------|---------|---------|---------|---------|---------|---------|---------|-7-------|
B|---------|---------|---------|---------|---------|---------|---------|---------|-8-------|
G|-%-------|-%-------|-%-------|-%-------|-%-------|-%-------|-%-------|-%-------|-9-------|
D|-%-------|-%-------|-%-------|-%-------|-%-------|-%-------|-%-------|-%-------|---------|
A|---------|---------|---------|---------|---------|---------|---------|---------|---------|
E|---------|---------|---------|---------|---------|---------|---------|---------|---------|


E|-2-------|-5-------|-3------0------|-7-------|-2-------|-5-------|-3-------|-7-------|
B|-3-------|-7-------|-5------1------|-8-------|-3-------|-7-------|-5-------|-8-------|
G|-4-------|-7-------|-5------2------|-9-------|-4-------|-7-------|-5-------|-9-------|
D|---------|---------|---------------|---------|---------|---------|---------|---------|
A|---------|---------|---------------|---------|---------|---------|---------|---------|
E|---------|---------|---------------|---------|---------|---------|---------|---------|


E|-2-------|-5-------|-3------0------|-7-------|-2-------|-5-------|-3-------|-7-------|
B|-3-------|-7-------|-5------1------|-8-------|-3-------|-7-------|-5-------|-8-------|
G|-4-------|-7-------|-5------2------|-9-------|-4-------|-7-------|-5-------|-9-------|
D|---------|---------|---------------|---------|---------|---------|---------|---------|
A|---------|---------|---------------|---------|---------|---------|---------|---------|
E|---------|---------|---------------|---------|---------|---------|---------|---------|


E|-2-------|-5-------|-3------0------|-7-------|-2-------|-5-------|-3-------|-12----8-----10-----|
B|-3-------|-7-------|-5------1------|-8-------|-3-------|-7-------|-5-------|--------------------|
G|-4-------|-7-------|-5------2------|-9-------|-4-------|-7-------|-5-------|--------------------|
D|---------|---------|---------------|---------|---------|---------|---------|--------------------|
A|---------|---------|---------------|---------|---------|---------|---------|--------------------|
E|---------|---------|---------------|---------|---------|---------|---------|--------------------|


E|-10-----8-----8-----|-12----8-----10-----|-10-----7-----7-----|-12----8-----10-----|
B|--------------------|--------------------|--------------------|--------------------|
G|--------------------|--------------------|--------------------|--------------------|
D|--------------------|--------------------|--------------------|--------------------|
A|--------------------|--------------------|--------------------|--------------------|
E|--------------------|--------------------|--------------------|--------------------|


E|-10-----8-----8-----|-12------8-----|-10------10----|-1-------|-5-------|-1-------|
B|--------------------|---------------|---------------|-3-------|-6-------|-3-------|
G|--------------------|---------------|---------------|-3-------|-7-------|-3-------|
D|--------------------|---------------|---------------|---------|---------|---------|
A|--------------------|---------------|---------------|---------|---------|---------|
E|--------------------|---------------|---------------|---------|---------|---------|


E|---------|-1-------|-5-------|-1-------|---------|-1-------|-5-------|-1-------|---------|
B|-1-------|-3-------|-6-------|-3-------|-1-------|-3-------|-6-------|-3-------|-1-------|
G|-2-------|-3-------|-7-------|-3-------|-2-------|-3-------|-7-------|-3-------|-2-------|
D|-3-------|---------|---------|---------|-3-------|---------|---------|---------|-3-------|
A|---------|---------|---------|---------|---------|---------|---------|---------|---------|
E|---------|---------|---------|---------|---------|---------|---------|---------|---------|


E|-1-------|-5-------|-1-------|---------|-2-------|-2-------|-5------7------|-2-------|
B|-3-------|-6-------|-3-------|-1-------|-2-------|-2-------|-7------9------|-2-------|
G|-3-------|-7-------|-3-------|-2-------|-2-------|-2-------|-7------9------|-2-------|
D|---------|---------|---------|-3-------|---------|---------|---------------|---------|
A|---------|---------|---------|---------|---------|---------|---------------|---------|
E|---------|---------|---------|---------|---------|---------|---------------|---------|


E|-2-------|-2-------|-5------7------|-2-------|-2-------|-2-------|-5------7------|
B|-2-------|-2-------|-7------9------|-2-------|-2-------|-2-------|-7------9------|
G|-2-------|-2-------|-7------9------|-2-------|-2-------|-2-------|-7------9------|
D|---------|---------|---------------|---------|---------|---------|---------------|
A|---------|---------|---------------|---------|---------|---------|---------------|
E|---------|---------|---------------|---------|---------|---------|---------------|


E|-2-------|-2-------|-2-------|-5------7------|-2-------|-7-------|-2-------|-5-------|
B|-2-------|-2-------|-2-------|-7------9------|-2-------|-8-------|-3-------|-7-------|
G|-2-------|-2-------|-2-------|-7------9------|-2-------|-9-------|-4-------|-7-------|
D|---------|---------|---------|---------------|---------|---------|---------|---------|
A|---------|---------|---------|---------------|---------|---------|---------|---------|
E|---------|---------|---------|---------------|---------|---------|---------|---------|


E|-3------0------|-7-------|-2-------|-5-------|-3-------|-7-------|-2-------|-5-------|
B|-5------1------|-8-------|-3-------|-7-------|-5-------|-8-------|-3-------|-7-------|
G|-5------2------|-9-------|-4-------|-7-------|-5-------|-9-------|-4-------|-7-------|
D|---------------|---------|---------|---------|---------|---------|---------|---------|
A|---------------|---------|---------|---------|---------|---------|---------|---------|
E|---------------|---------|---------|---------|---------|---------|---------|---------|


E|-3------0------|-7-------|-2-------|-5-------|-3-------|-3-------|-3-------|-3-------|
B|-5------1------|-8-------|-3-------|-7-------|-5-------|-5-------|-5-------|-5-------|
G|-5------2------|-9-------|-4-------|-7-------|-5-------|-5-------|-5-------|-5-------|
D|---------------|---------|---------|---------|---------|---------|---------|---------|
A|---------------|---------|---------|---------|---------|---------|---------|---------|
E|---------------|---------|---------|---------|---------|---------|---------|---------|


E|---------|---------|---------|---------|---------|---------|---------|---------|---------|
B|---------|---------|---------|---------|---------|---------|---------|---------|---------|
G|-%-------|-%-------|-%-------|-%-------|-%-------|-%-------|-%-------|-%-------|-%-------|
D|-%-------|-%-------|-%-------|-%-------|-%-------|-%-------|-%-------|-%-------|-%-------|
A|---------|---------|---------|---------|---------|---------|---------|---------|---------|
E|---------|---------|---------|---------|---------|---------|---------|---------|---------|


E|---------|---------|---------|
B|---------|---------|---------|
G|-%-------|-%-------|-%-------|
D|-%-------|-%-------|-%-------|
A|---------|---------|---------|
E|---------|---------|---------|

    

Nézd meg a videót és ismerd meg a leggyorsabb utat, hogyan tanulhatod meg kedvenc számaid gitáron!