Hogyan játszd el gitáron a Unknown Artist – The Darkest Sky dalt?

Unknown Artist The Darkest Sky – GITÁR PRO TAB, KOTTA, AKKORDOK

Kotta típusa: Voice

(Általában egy zeneszám minden kottája: gitár, szólógitár, basszusgitár, ének, zongora, dob stb. megtalálható az oldalon, de mindegyik egy külön bejegyzésben. Ha egy másik hangszer gitártabos kottáját keresed, akkor az oldal alján vagy a keresőben megtalálod. Sokszor a zenekar tagjának a neve lesz a kotta kategóriája.)

        


E|---------|---------|---------|---------|---------|---------|---------|---------|---------|
B|---------|---------|---------|---------|---------|---------|---------|---------|---------|
G|-%-------|-%-------|-%-------|-%-------|-%-------|-%-------|-%-------|-%-------|-%-------|
D|-%-------|-%-------|-%-------|-%-------|-%-------|-%-------|-%-------|-%-------|-%-------|
A|---------|---------|---------|---------|---------|---------|---------|---------|---------|
E|---------|---------|---------|---------|---------|---------|---------|---------|---------|


E|---------|---------|---------|---------|---------|---------|---------|---------|---------|
B|---------|---------|---------|---------|---------|---------|---------|---------|---------|
G|-%-------|-%-------|-%-------|-%-------|-%-------|-%-------|-%-------|-%-------|-%-------|
D|-%-------|-%-------|-%-------|-%-------|-%-------|-%-------|-%-------|-%-------|-%-------|
A|---------|---------|---------|---------|---------|---------|---------|---------|---------|
E|---------|---------|---------|---------|---------|---------|---------|---------|---------|


E|---------|---------|-7-----7----8----7-----5----7----|-5-----5----7----8-----8----5----|
B|---------|---------|---------------------------------|---------------------------------|
G|-%-------|-%-------|---------------------------------|---------------------------------|
D|-%-------|-%-------|---------------------------------|---------------------------------|
A|---------|---------|---------------------------------|---------------------------------|
E|---------|---------|---------------------------------|---------------------------------|


E|-3-----3----3----5-----5----3----|-7-----7----7----5-----------|-7-----7----8----7-----5----7----|
B|---------------------------------|-----------------------------|---------------------------------|
G|---------------------------------|-----------------------%-----|---------------------------------|
D|---------------------------------|-----------------------%-----|---------------------------------|
A|---------------------------------|-----------------------------|---------------------------------|
E|---------------------------------|-----------------------------|---------------------------------|


E|-5-----5----7----8-----8----5----|-3-----3----3----5-----5----3----|-7-----7----7----5-----------|
B|---------------------------------|---------------------------------|-----------------------------|
G|---------------------------------|---------------------------------|-----------------------%-----|
D|---------------------------------|---------------------------------|-----------------------%-----|
A|---------------------------------|---------------------------------|-----------------------------|
E|---------------------------------|---------------------------------|-----------------------------|


E|-10----10---8----7-----8----10---|-8-----8----8----8-----10---12---|-10----10---8----7-----7----5----|
B|---------------------------------|---------------------------------|---------------------------------|
G|---------------------------------|---------------------------------|---------------------------------|
D|---------------------------------|---------------------------------|---------------------------------|
A|---------------------------------|---------------------------------|---------------------------------|
E|---------------------------------|---------------------------------|---------------------------------|


E|-7-----7----7----8-----------|-7-----7----8----7-----5----7----|-5-----5----7----8-----8----5----|
B|-----------------------------|---------------------------------|---------------------------------|
G|-----------------------%-----|---------------------------------|---------------------------------|
D|-----------------------%-----|---------------------------------|---------------------------------|
A|-----------------------------|---------------------------------|---------------------------------|
E|-----------------------------|---------------------------------|---------------------------------|


E|-3-----3----3----5-----5----3----|-7-----7----7----5-----------|---------|---------|
B|---------------------------------|-----------------------------|---------|---------|
G|---------------------------------|-----------------------%-----|-%-------|-%-------|
D|---------------------------------|-----------------------%-----|-%-------|-%-------|
A|---------------------------------|-----------------------------|---------|---------|
E|---------------------------------|-----------------------------|---------|---------|


E|---------|---------|---------|---------|---------|---------|-7-----7----8----7-----5----7----|
B|---------|---------|---------|---------|---------|---------|---------------------------------|
G|-%-------|-%-------|-%-------|-%-------|-%-------|-%-------|---------------------------------|
D|-%-------|-%-------|-%-------|-%-------|-%-------|-%-------|---------------------------------|
A|---------|---------|---------|---------|---------|---------|---------------------------------|
E|---------|---------|---------|---------|---------|---------|---------------------------------|


E|-5-----5----7----8-----8----5----|-3-----3----3----5-----5----3----|-7-----7----7----5-----------|
B|---------------------------------|---------------------------------|-----------------------------|
G|---------------------------------|---------------------------------|-----------------------%-----|
D|---------------------------------|---------------------------------|-----------------------%-----|
A|---------------------------------|---------------------------------|-----------------------------|
E|---------------------------------|---------------------------------|-----------------------------|


E|-7-----7----8----7-----5----7----|-5-----5----7----8-----8----5----|-3-----3----3----5-----5----3----|
B|---------------------------------|---------------------------------|---------------------------------|
G|---------------------------------|---------------------------------|---------------------------------|
D|---------------------------------|---------------------------------|---------------------------------|
A|---------------------------------|---------------------------------|---------------------------------|
E|---------------------------------|---------------------------------|---------------------------------|


E|-7-----7----7----5-----------|-10----10---8----7-----8----10---|-8-----8----8----8-----10---12---|
B|-----------------------------|---------------------------------|---------------------------------|
G|-----------------------%-----|---------------------------------|---------------------------------|
D|-----------------------%-----|---------------------------------|---------------------------------|
A|-----------------------------|---------------------------------|---------------------------------|
E|-----------------------------|---------------------------------|---------------------------------|


E|-10----10---8----7-----7----5----|-7-----7----7----8-----------|-7-----7----8----7-----5----7----|
B|---------------------------------|-----------------------------|---------------------------------|
G|---------------------------------|-----------------------%-----|---------------------------------|
D|---------------------------------|-----------------------%-----|---------------------------------|
A|---------------------------------|-----------------------------|---------------------------------|
E|---------------------------------|-----------------------------|---------------------------------|


E|-5-----5----7----8-----8----5----|-3-----3----3----5-----5----3----|-7-----7----7----5-----------|
B|---------------------------------|---------------------------------|-----------------------------|
G|---------------------------------|---------------------------------|-----------------------%-----|
D|---------------------------------|---------------------------------|-----------------------%-----|
A|---------------------------------|---------------------------------|-----------------------------|
E|---------------------------------|---------------------------------|-----------------------------|


E|---------|---------|---------|---------|-12-----10-----8-----|-10-----8------7-----|
B|---------|---------|---------|---------|---------------------|---------------------|
G|-%-------|-%-------|-%-------|-%-------|---------------------|---------------------|
D|-%-------|-%-------|-%-------|-%-------|---------------------|---------------------|
A|---------|---------|---------|---------|---------------------|---------------------|
E|---------|---------|---------|---------|---------------------|---------------------|


E|-8------7------5-----|-7-------------|-12-----10-----8-----|-10-----8------7-----|
B|---------------------|---------------|---------------------|---------------------|
G|---------------------|--------%------|---------------------|---------------------|
D|---------------------|--------%------|---------------------|---------------------|
A|---------------------|---------------|---------------------|---------------------|
E|---------------------|---------------|---------------------|---------------------|


E|-8------10-----12----|-10------------|---------|---------|---------|---------|---------|
B|---------------------|---------------|---------|---------|---------|---------|---------|
G|---------------------|--------%------|-%-------|-%-------|-%-------|-%-------|-%-------|
D|---------------------|--------%------|-%-------|-%-------|-%-------|-%-------|-%-------|
A|---------------------|---------------|---------|---------|---------|---------|---------|
E|---------------------|---------------|---------|---------|---------|---------|---------|


E|---------|---------|---------|---------|---------|-7-----7----8----7-----5----7----|
B|---------|---------|---------|---------|---------|---------------------------------|
G|-%-------|-%-------|-%-------|-%-------|-%-------|---------------------------------|
D|-%-------|-%-------|-%-------|-%-------|-%-------|---------------------------------|
A|---------|---------|---------|---------|---------|---------------------------------|
E|---------|---------|---------|---------|---------|---------------------------------|


E|-5-----5----7----8-----8----5----|-3-----3----3----5-----5----3----|-7-----7----7----5-----------|
B|---------------------------------|---------------------------------|-----------------------------|
G|---------------------------------|---------------------------------|-----------------------%-----|
D|---------------------------------|---------------------------------|-----------------------%-----|
A|---------------------------------|---------------------------------|-----------------------------|
E|---------------------------------|---------------------------------|-----------------------------|


E|-7-----7----8----7-----5----7----|-5-----5----7----8-----8----5----|-3-----3----3----5-----5----3----|
B|---------------------------------|---------------------------------|---------------------------------|
G|---------------------------------|---------------------------------|---------------------------------|
D|---------------------------------|---------------------------------|---------------------------------|
A|---------------------------------|---------------------------------|---------------------------------|
E|---------------------------------|---------------------------------|---------------------------------|


E|-7-----7----7----5-----------|-10----10---8----7-----8----10---|-8-----8----8----8-----10---12---|
B|-----------------------------|---------------------------------|---------------------------------|
G|-----------------------%-----|---------------------------------|---------------------------------|
D|-----------------------%-----|---------------------------------|---------------------------------|
A|-----------------------------|---------------------------------|---------------------------------|
E|-----------------------------|---------------------------------|---------------------------------|


E|-10----10---8----7-----7----5----|-7-----7----7----8-----------|-7-----7----8----7-----5----7----|
B|---------------------------------|-----------------------------|---------------------------------|
G|---------------------------------|-----------------------%-----|---------------------------------|
D|---------------------------------|-----------------------%-----|---------------------------------|
A|---------------------------------|-----------------------------|---------------------------------|
E|---------------------------------|-----------------------------|---------------------------------|


E|-5-----5----7----8-----8----5----|-3-----3----3----5-----5----3----|-7-----7----7----5-----------|
B|---------------------------------|---------------------------------|-----------------------------|
G|---------------------------------|---------------------------------|-----------------------%-----|
D|---------------------------------|---------------------------------|-----------------------%-----|
A|---------------------------------|---------------------------------|-----------------------------|
E|---------------------------------|---------------------------------|-----------------------------|


E|---------|---------|---------|---------|-12-----10-----8-----|-10-----8------7-----|
B|---------|---------|---------|---------|---------------------|---------------------|
G|-%-------|-%-------|-%-------|-%-------|---------------------|---------------------|
D|-%-------|-%-------|-%-------|-%-------|---------------------|---------------------|
A|---------|---------|---------|---------|---------------------|---------------------|
E|---------|---------|---------|---------|---------------------|---------------------|


E|-8------7------5-----|-7-------------|-12-----10-----8-----|-10-----8------7-----|
B|---------------------|---------------|---------------------|---------------------|
G|---------------------|--------%------|---------------------|---------------------|
D|---------------------|--------%------|---------------------|---------------------|
A|---------------------|---------------|---------------------|---------------------|
E|---------------------|---------------|---------------------|---------------------|


E|-8------10-----12----|-10------------|---------|---------|---------|---------|---------|
B|---------------------|---------------|---------|---------|---------|---------|---------|
G|---------------------|--------%------|-%-------|-%-------|-%-------|-%-------|-%-------|
D|---------------------|--------%------|-%-------|-%-------|-%-------|-%-------|-%-------|
A|---------------------|---------------|---------|---------|---------|---------|---------|
E|---------------------|---------------|---------|---------|---------|---------|---------|


E|---------|---------|---------|---------|---------|-7-----7----8----7-----5----7----|
B|---------|---------|---------|---------|---------|---------------------------------|
G|-%-------|-%-------|-%-------|-%-------|-%-------|---------------------------------|
D|-%-------|-%-------|-%-------|-%-------|-%-------|---------------------------------|
A|---------|---------|---------|---------|---------|---------------------------------|
E|---------|---------|---------|---------|---------|---------------------------------|


E|-5-----5----7----8-----8----5----|-3-----3----3----5-----5----3----|-7-----7----7----5-----------|
B|---------------------------------|---------------------------------|-----------------------------|
G|---------------------------------|---------------------------------|-----------------------%-----|
D|---------------------------------|---------------------------------|-----------------------%-----|
A|---------------------------------|---------------------------------|-----------------------------|
E|---------------------------------|---------------------------------|-----------------------------|


E|-7-----7----8----7-----5----7----|-5-----5----7----8-----8----5----|-3-----3----3----5-----5----3----|
B|---------------------------------|---------------------------------|---------------------------------|
G|---------------------------------|---------------------------------|---------------------------------|
D|---------------------------------|---------------------------------|---------------------------------|
A|---------------------------------|---------------------------------|---------------------------------|
E|---------------------------------|---------------------------------|---------------------------------|


E|-7-----7----7----5-----------|-10----10---8----7-----8----10---|-8-----8----8----8-----10---12---|
B|-----------------------------|---------------------------------|---------------------------------|
G|-----------------------%-----|---------------------------------|---------------------------------|
D|-----------------------%-----|---------------------------------|---------------------------------|
A|-----------------------------|---------------------------------|---------------------------------|
E|-----------------------------|---------------------------------|---------------------------------|


E|-10----10---8----7-----7----5----|-7-----7----7----8-----------|-7-----7----8----7-----5----7----|
B|---------------------------------|-----------------------------|---------------------------------|
G|---------------------------------|-----------------------%-----|---------------------------------|
D|---------------------------------|-----------------------%-----|---------------------------------|
A|---------------------------------|-----------------------------|---------------------------------|
E|---------------------------------|-----------------------------|---------------------------------|


E|-5-----5----7----8-----8----5----|-3-----3----3----5-----5----3----|-7-----7----7----5-----------|
B|---------------------------------|---------------------------------|-----------------------------|
G|---------------------------------|---------------------------------|-----------------------%-----|
D|---------------------------------|---------------------------------|-----------------------%-----|
A|---------------------------------|---------------------------------|-----------------------------|
E|---------------------------------|---------------------------------|-----------------------------|


E|---------|---------|---------|---------|---------|---------|---------|---------|---------|
B|---------|---------|---------|---------|---------|---------|---------|---------|---------|
G|-%-------|-%-------|-%-------|-%-------|-%-------|-%-------|-%-------|-%-------|-%-------|
D|-%-------|-%-------|-%-------|-%-------|-%-------|-%-------|-%-------|-%-------|-%-------|
A|---------|---------|---------|---------|---------|---------|---------|---------|---------|
E|---------|---------|---------|---------|---------|---------|---------|---------|---------|


E|---------|---------|---------|---------|---------|---------|---------|---------|---------|
B|---------|---------|---------|---------|---------|---------|---------|---------|---------|
G|-%-------|-%-------|-%-------|-%-------|-%-------|-%-------|-%-------|-%-------|-%-------|
D|-%-------|-%-------|-%-------|-%-------|-%-------|-%-------|-%-------|-%-------|-%-------|
A|---------|---------|---------|---------|---------|---------|---------|---------|---------|
E|---------|---------|---------|---------|---------|---------|---------|---------|---------|


E|---------|---------|---------|---------|---------|---------|---------|---------|---------|
B|---------|---------|---------|---------|---------|---------|---------|---------|---------|
G|-%-------|-%-------|-%-------|-%-------|-%-------|-%-------|-%-------|-%-------|-%-------|
D|-%-------|-%-------|-%-------|-%-------|-%-------|-%-------|-%-------|-%-------|-%-------|
A|---------|---------|---------|---------|---------|---------|---------|---------|---------|
E|---------|---------|---------|---------|---------|---------|---------|---------|---------|


E|---------|---------|---------|---------|---------|---------|---------|---------|---------|
B|---------|---------|---------|---------|---------|---------|---------|---------|---------|
G|-%-------|-%-------|-%-------|-%-------|-%-------|-%-------|-%-------|-%-------|-%-------|
D|-%-------|-%-------|-%-------|-%-------|-%-------|-%-------|-%-------|-%-------|-%-------|
A|---------|---------|---------|---------|---------|---------|---------|---------|---------|
E|---------|---------|---------|---------|---------|---------|---------|---------|---------|


E|---------|---------|---------|---------|---------|---------|---------|---------|---------|
B|---------|---------|---------|---------|---------|---------|---------|---------|---------|
G|-%-------|-%-------|-%-------|-%-------|-%-------|-%-------|-%-------|-%-------|-%-------|
D|-%-------|-%-------|-%-------|-%-------|-%-------|-%-------|-%-------|-%-------|-%-------|
A|---------|---------|---------|---------|---------|---------|---------|---------|---------|
E|---------|---------|---------|---------|---------|---------|---------|---------|---------|


E|---------|---------|---------|---------|---------|---------|---------|---------|---------|
B|---------|---------|---------|---------|---------|---------|---------|---------|---------|
G|-%-------|-%-------|-%-------|-%-------|-%-------|-%-------|-%-------|-%-------|-%-------|
D|-%-------|-%-------|-%-------|-%-------|-%-------|-%-------|-%-------|-%-------|-%-------|
A|---------|---------|---------|---------|---------|---------|---------|---------|---------|
E|---------|---------|---------|---------|---------|---------|---------|---------|---------|


E|---------|---------|---------|---------|---------|---------|---------|---------|---------|
B|---------|---------|---------|---------|---------|---------|---------|---------|---------|
G|-%-------|-%-------|-%-------|-%-------|-%-------|-%-------|-%-------|-%-------|-%-------|
D|-%-------|-%-------|-%-------|-%-------|-%-------|-%-------|-%-------|-%-------|-%-------|
A|---------|---------|---------|---------|---------|---------|---------|---------|---------|
E|---------|---------|---------|---------|---------|---------|---------|---------|---------|


E|---------|---------|---------|---------|---------|---------|---------|---------|---------|
B|---------|---------|---------|---------|---------|---------|---------|---------|---------|
G|-%-------|-%-------|-%-------|-%-------|-%-------|-%-------|-%-------|-%-------|-%-------|
D|-%-------|-%-------|-%-------|-%-------|-%-------|-%-------|-%-------|-%-------|-%-------|
A|---------|---------|---------|---------|---------|---------|---------|---------|---------|
E|---------|---------|---------|---------|---------|---------|---------|---------|---------|


E|---------|---------|---------|---------|---------|---------|---------|---------|---------|
B|---------|---------|---------|---------|---------|---------|---------|---------|---------|
G|-%-------|-%-------|-%-------|-%-------|-%-------|-%-------|-%-------|-%-------|-%-------|
D|-%-------|-%-------|-%-------|-%-------|-%-------|-%-------|-%-------|-%-------|-%-------|
A|---------|---------|---------|---------|---------|---------|---------|---------|---------|
E|---------|---------|---------|---------|---------|---------|---------|---------|---------|


E|---------|---------|---------|---------|---------|---------|---------|---------|---------|
B|---------|---------|---------|---------|---------|---------|---------|---------|---------|
G|-%-------|-%-------|-%-------|-%-------|-%-------|-%-------|-%-------|-%-------|-%-------|
D|-%-------|-%-------|-%-------|-%-------|-%-------|-%-------|-%-------|-%-------|-%-------|
A|---------|---------|---------|---------|---------|---------|---------|---------|---------|
E|---------|---------|---------|---------|---------|---------|---------|---------|---------|


E|---------|---------|---------|---------|---------|---------|---------|---------|---------|
B|---------|---------|---------|---------|---------|---------|---------|---------|---------|
G|-%-------|-%-------|-%-------|-%-------|-%-------|-%-------|-%-------|-%-------|-%-------|
D|-%-------|-%-------|-%-------|-%-------|-%-------|-%-------|-%-------|-%-------|-%-------|
A|---------|---------|---------|---------|---------|---------|---------|---------|---------|
E|---------|---------|---------|---------|---------|---------|---------|---------|---------|


E|---------|---------|---------|---------|---------|---------|---------|---------|---------|
B|---------|---------|---------|---------|---------|---------|---------|---------|---------|
G|-%-------|-%-------|-%-------|-%-------|-%-------|-%-------|-%-------|-%-------|-%-------|
D|-%-------|-%-------|-%-------|-%-------|-%-------|-%-------|-%-------|-%-------|-%-------|
A|---------|---------|---------|---------|---------|---------|---------|---------|---------|
E|---------|---------|---------|---------|---------|---------|---------|---------|---------|


E|---------|---------|---------|
B|---------|---------|---------|
G|-%-------|-%-------|-%-------|
D|-%-------|-%-------|-%-------|
A|---------|---------|---------|
E|---------|---------|---------|

    

Nézd meg a videót és ismerd meg a leggyorsabb utat, hogyan tanulhatod meg kedvenc számaid gitáron!