Hogyan játszd el gitáron a Unknown Artist – The Hidden Treasure dalt?

Unknown Artist The Hidden Treasure – GITÁR PRO TAB, KOTTA, AKKORDOK

Kotta típusa: Bass

(Általában egy zeneszám minden kottája: gitár, szólógitár, basszusgitár, ének, zongora, dob stb. megtalálható az oldalon, de mindegyik egy külön bejegyzésben. Ha egy másik hangszer gitártabos kottáját keresed, akkor az oldal alján vagy a keresőben megtalálod. Sokszor a zenekar tagjának a neve lesz a kotta kategóriája.)

        


E|-----------------------------------------------------|-----------------------------------------------------|
B|-----------------------------------------------------|-----------------------------------------------------|
G|-----------------------------------------------------|-----------------------------------------------------|
D|-----------------------------------------------------|-----------------------------------------------------|
A|-----------------------------------------------------|-----------------------------------------------------|
E|-0----0---0---0----0---0---0----0---0---0----0---0---|-0----0---0---0----0---0---0----0---0---0----0---0---|


E|-----------------------------------------------------|-----------------------------------------------------|
B|-----------------------------------------------------|-----------------------------------------------------|
G|-----------------------------------------------------|-----------------------------------------------------|
D|-----------------------------------------------------|-----------------------------------------------------|
A|-----------------------------------------------------|-----------------------------------------------------|
E|-0----0---0---0----0---0---0----0---0---0----0---0---|-0----0---0---0----0---0---0----0---0---0----0---0---|


E|-----------------------------------------------------|-----------------------------------------------------|
B|-----------------------------------------------------|-----------------------------------------------------|
G|-----------------------------------------------------|-----------------------------------------------------|
D|-----------------------------------------------------|-----------------------------------------------------|
A|-----------------------------------------------------|-----------------------------------------------------|
E|-0----0---0---0----0---0---0----0---0---0----0---0---|-0----0---0---0----0---0---0----0---0---0----0---0---|


E|-----------------------------------------------------|-----------------------------------------------------|
B|-----------------------------------------------------|-----------------------------------------------------|
G|-----------------------------------------------------|-----------------------------------------------------|
D|-----------------------------------------------------|-----------------------------------------------------|
A|-----------------------------------------------------|-----------------------------------------------------|
E|-0----0---0---0----0---0---0----0---0---0----0---0---|-0----0---0---0----0---0---0----0---0---0----0---0---|


E|-----------------------------------------------------|-----------------------------------------------------|
B|-----------------------------------------------------|-----------------------------------------------------|
G|-----------------------------------------------------|-----------------------------------------------------|
D|-----------------------------------------------------|-----------------------------------------------------|
A|-----------------------------------------------------|-----------------------------------------------------|
E|-3----3---3---3----3---3---3----3---3---3----3---3---|-5----5---5---5----5---5---5----5---5---5----5---5---|


E|-----------------------------------------------------|-----------------------------------------------------|
B|-----------------------------------------------------|-----------------------------------------------------|
G|-----------------------------------------------------|-----------------------------------------------------|
D|-----------------------------------------------------|-----------------------------------------------------|
A|-----------------------------------------------------|-----------------------------------------------------|
E|-0----0---0---0----0---0---0----0---0---0----0---0---|-0----0---0---0----0---0---0----0---0---0----0---0---|


E|-----------------------------------------------------|-----------------------------------------------------|
B|-----------------------------------------------------|-----------------------------------------------------|
G|-----------------------------------------------------|-----------------------------------------------------|
D|-----------------------------------------------------|-----------------------------------------------------|
A|-----------------------------------------------------|-----------------------------------------------------|
E|-3----3---3---3----3---3---3----3---3---3----3---3---|-5----5---5---5----5---5---5----5---5---5----5---5---|


E|-----------------------------------------------------|-----------------------------------------------------|
B|-----------------------------------------------------|-----------------------------------------------------|
G|-----------------------------------------------------|-----------------------------------------------------|
D|-----------------------------------------------------|-----------------------------------------------------|
A|-----------------------------------------------------|-----------------------------------------------------|
E|-0----0---0---0----0---0---0----0---0---0----0---0---|-0----0---0---0----0---0---0----0---0---0----0---0---|


E|--------------------|---------------|--------------------|---------------|--------------------|
B|--------------------|---------------|--------------------|---------------|--------------------|
G|-9-----5-----7------|-7------7------|-9-----5-----7------|-7------7------|-7-----2-----5------|
D|-9-----5-----7------|-7------7------|-9-----5-----7------|-7------7------|-7-----2-----5------|
A|-7-----3-----5------|-5------5------|-7-----3-----5------|-5------5------|-5-----0-----3------|
E|--------------------|---------------|--------------------|---------------|--------------------|


E|---------------|--------------------|---------------|--------------------|---------------|
B|---------------|--------------------|---------------|--------------------|---------------|
G|-5------5------|-7-----2-----5------|-5------5------|-7-----5-----9------|-9------9------|
D|-5------5------|-7-----2-----5------|-5------5------|-7-----5-----9------|-9------9------|
A|-3------3------|-5-----0-----3------|-3------3------|-5-----3-----7------|-7------7------|
E|---------------|--------------------|---------------|--------------------|---------------|


E|--------------------|---------------|--------------------|---------------|--------------------|
B|--------------------|---------------|--------------------|---------------|--------------------|
G|-9-----5-----7------|-7------7------|-7-----2-----5------|-5------5------|-7-----2-----5------|
D|-9-----5-----7------|-7------7------|-7-----2-----5------|-5------5------|-7-----2-----5------|
A|-7-----3-----5------|-5------5------|-5-----0-----3------|-3------3------|-5-----0-----3------|
E|--------------------|---------------|--------------------|---------------|--------------------|


E|---------------|-----------------------------------------|-----------------------------------------|
B|---------------|-----------------------------------------|-----------------------------------------|
G|-5------5------|-----------------------------------------|-----------------------------------------|
D|-5------5------|-----------------------------------------|-----------------------------------------|
A|-3------3------|------2---------2---------2---------2----|------5---------5---------7---------7----|
E|---------------|-0---------0---------0---------0---------|-3---------3---------5---------5---------|


E|-----------------------------------------|-----------------------------------------|
B|-----------------------------------------|-----------------------------------------|
G|-----------------------------------------|-----------------------------------------|
D|-----------------------------------------|-----------------------------------------|
A|------2---------2---------2---------2----|------5---------5---------7---------7----|
E|-0---------0---------0---------0---------|-3---------3---------5---------5---------|


E|-----------------------------------------|-----------------------------------------|
B|-----------------------------------------|-----------------------------------------|
G|-----------------------------------------|-----------------------------------------|
D|------5---------5---------7---------7----|------5---------5---------7---------7----|
A|-3---------3---------5---------5---------|-3---------3---------5---------5---------|
E|-----------------------------------------|-----------------------------------------|


E|-----------------------------------------|-----------------------------------------|
B|-----------------------------------------|-----------------------------------------|
G|-----------------------------------------|-----------------------------------------|
D|-----------------------------------------|-----------------------------------------|
A|------2---------2---------2---------2----|------2---------2---------2---------2----|
E|-0---------0---------0---------0---------|-0---------0---------0---------0---------|


E|-----------------------------------------|-----------------------------------------|
B|-----------------------------------------|-----------------------------------------|
G|-----------------------------------------|-----------------------------------------|
D|-----------------------------------------|-----------------------------------------|
A|------2---------2---------2---------2----|------5---------5---------7---------7----|
E|-0---------0---------0---------0---------|-3---------3---------5---------5---------|


E|-----------------------------------------|-----------------------------------------|
B|-----------------------------------------|-----------------------------------------|
G|-----------------------------------------|-----------------------------------------|
D|-----------------------------------------|-----------------------------------------|
A|------2---------2---------2---------2----|------5---------5---------7---------7----|
E|-0---------0---------0---------0---------|-3---------3---------5---------5---------|


E|-----------------------------------------|-----------------------------------------|
B|-----------------------------------------|-----------------------------------------|
G|-----------------------------------------|-----------------------------------------|
D|------5---------5---------7---------7----|------5---------5---------7---------7----|
A|-3---------3---------5---------5---------|-3---------3---------5---------5---------|
E|-----------------------------------------|-----------------------------------------|


E|-----------------------------------------|-----------------------------------------|
B|-----------------------------------------|-----------------------------------------|
G|-----------------------------------------|-----------------------------------------|
D|-----------------------------------------|-----------------------------------------|
A|------2---------2---------2---------2----|------2---------2---------2---------2----|
E|-0---------0---------0---------0---------|-0---------0---------0---------0---------|


E|-----------------------------------------|-----------------------------------------|
B|-----------------------------------------|-----------------------------------------|
G|-----------------------------------------|-----------------------------------------|
D|-----------------------------------------|-----------------------------------------|
A|------2---------2---------2---------2----|------5---------5---------7---------7----|
E|-0---------0---------0---------0---------|-3---------3---------5---------5---------|


E|-----------------------------------------|-----------------------------------------|
B|-----------------------------------------|-----------------------------------------|
G|-----------------------------------------|-----------------------------------------|
D|-----------------------------------------|-----------------------------------------|
A|------2---------2---------2---------2----|------5---------5---------7---------7----|
E|-0---------0---------0---------0---------|-3---------3---------5---------5---------|


E|-----------------------------------------|-----------------------------------------|
B|-----------------------------------------|-----------------------------------------|
G|-----------------------------------------|-----------------------------------------|
D|------5---------5---------7---------7----|------5---------5---------7---------7----|
A|-3---------3---------5---------5---------|-3---------3---------5---------5---------|
E|-----------------------------------------|-----------------------------------------|


E|-----------------------------------------|-----------------------------------------|
B|-----------------------------------------|-----------------------------------------|
G|-----------------------------------------|-----------------------------------------|
D|-----------------------------------------|-----------------------------------------|
A|------2---------2---------2---------2----|------2---------2---------2---------2----|
E|-0---------0---------0---------0---------|-0---------0---------0---------0---------|


E|-----------------------------------------|-----------------------------------------|
B|-----------------------------------------|-----------------------------------------|
G|-----------------------------------------|-----------------------------------------|
D|-----------------------------------------|-----------------------------------------|
A|------2---------2---------2---------2----|------5---------5---------7---------7----|
E|-0---------0---------0---------0---------|-3---------3---------5---------5---------|


E|-----------------------------------------|-----------------------------------------|
B|-----------------------------------------|-----------------------------------------|
G|-----------------------------------------|-----------------------------------------|
D|-----------------------------------------|-----------------------------------------|
A|------2---------2---------2---------2----|------5---------5---------7---------7----|
E|-0---------0---------0---------0---------|-3---------3---------5---------5---------|


E|-----------------------------------------|-----------------------------------------|
B|-----------------------------------------|-----------------------------------------|
G|-----------------------------------------|-----------------------------------------|
D|------5---------5---------7---------7----|------5---------5---------7---------7----|
A|-3---------3---------5---------5---------|-3---------3---------5---------5---------|
E|-----------------------------------------|-----------------------------------------|


E|-----------------------------------------|-----------------------------------------|
B|-----------------------------------------|-----------------------------------------|
G|-----------------------------------------|-----------------------------------------|
D|-----------------------------------------|-----------------------------------------|
A|------2---------2---------2---------2----|------2---------2---------2---------2----|
E|-0---------0---------0---------0---------|-0---------0---------0---------0---------|


E|-----------------------------------------|-----------------------------------------|
B|-----------------------------------------|-----------------------------------------|
G|-----------------------------------------|-----------------------------------------|
D|-----------------------------------------|-----------------------------------------|
A|------2---------2---------2---------2----|------5---------5---------7---------7----|
E|-0---------0---------0---------0---------|-3---------3---------5---------5---------|


E|-----------------------------------------|-----------------------------------------|
B|-----------------------------------------|-----------------------------------------|
G|-----------------------------------------|-----------------------------------------|
D|-----------------------------------------|-----------------------------------------|
A|------2---------2---------2---------2----|------5---------5---------7---------7----|
E|-0---------0---------0---------0---------|-3---------3---------5---------5---------|


E|-----------------------------------------|-----------------------------------------|
B|-----------------------------------------|-----------------------------------------|
G|-----------------------------------------|-----------------------------------------|
D|------5---------5---------7---------7----|------5---------5---------7---------7----|
A|-3---------3---------5---------5---------|-3---------3---------5---------5---------|
E|-----------------------------------------|-----------------------------------------|


E|-----------------------------------------|-----------------------------------------|
B|-----------------------------------------|-----------------------------------------|
G|-----------------------------------------|-----------------------------------------|
D|-----------------------------------------|-----------------------------------------|
A|------2---------2---------2---------2----|------2---------2---------2---------2----|
E|-0---------0---------0---------0---------|-0---------0---------0---------0---------|


E|-----------------------------------------|-----------------------------------------|
B|-----------------------------------------|-----------------------------------------|
G|-----------------------------------------|-----------------------------------------|
D|-----------------------------------------|-----------------------------------------|
A|------2---------2---------2---------2----|------5---------5---------7---------7----|
E|-0---------0---------0---------0---------|-3---------3---------5---------5---------|


E|-----------------------------------------|-----------------------------------------|
B|-----------------------------------------|-----------------------------------------|
G|-----------------------------------------|-----------------------------------------|
D|-----------------------------------------|-----------------------------------------|
A|------2---------2---------2---------2----|------5---------5---------7---------7----|
E|-0---------0---------0---------0---------|-3---------3---------5---------5---------|


E|-----------------------------------------|-----------------------------------------|
B|-----------------------------------------|-----------------------------------------|
G|-----------------------------------------|-----------------------------------------|
D|------5---------5---------7---------7----|------5---------5---------7---------7----|
A|-3---------3---------5---------5---------|-3---------3---------5---------5---------|
E|-----------------------------------------|-----------------------------------------|


E|-----------------------------------------|-----------------------------------------|
B|-----------------------------------------|-----------------------------------------|
G|-----------------------------------------|-----------------------------------------|
D|-----------------------------------------|-----------------------------------------|
A|------2---------2---------2---------2----|------2---------2---------2---------2----|
E|-0---------0---------0---------0---------|-0---------0---------0---------0---------|


E|-----------------------------------------|-----------------------------------------|
B|-----------------------------------------|-----------------------------------------|
G|-----------------------------------------|-----------------------------------------|
D|-----------------------------------------|-----------------------------------------|
A|------2---------2---------2---------2----|------5---------5---------7---------7----|
E|-0---------0---------0---------0---------|-3---------3---------5---------5---------|


E|-----------------------------------------|-----------------------------------------|
B|-----------------------------------------|-----------------------------------------|
G|-----------------------------------------|-----------------------------------------|
D|-----------------------------------------|-----------------------------------------|
A|------2---------2---------2---------2----|------5---------5---------7---------7----|
E|-0---------0---------0---------0---------|-3---------3---------5---------5---------|


E|-----------------------------------------|-----------------------------------------|
B|-----------------------------------------|-----------------------------------------|
G|-----------------------------------------|-----------------------------------------|
D|------5---------5---------7---------7----|------5---------5---------7---------7----|
A|-3---------3---------5---------5---------|-3---------3---------5---------5---------|
E|-----------------------------------------|-----------------------------------------|


E|-----------------------------------------|-----------------------------------------|
B|-----------------------------------------|-----------------------------------------|
G|-----------------------------------------|-----------------------------------------|
D|-----------------------------------------|-----------------------------------------|
A|------2---------2---------2---------2----|------2---------2---------2---------2----|
E|-0---------0---------0---------0---------|-0---------0---------0---------0---------|


E|--------------------|---------------|-------------|-------------------------------|
B|--------------------|---------------|-------------|-------------------------------|
G|-9-----5-----7------|-7------7------|-9-----5-----|-------------------------------|
D|-9-----5-----7------|-7------7------|-9-----5-----|-------------------------------|
A|-7-----3-----5------|-5------5------|-7-----3-----|-3----3----3----3----3----3----|
E|--------------------|---------------|-------------|-------------------------------|


E|-------------------------------|-------------------------------|-------------------------------|
B|-------------------------------|-------------------------------|-------------------------------|
G|-------------------------------|-------------------------------|-------------------------------|
D|-------------------------------|-------------------------------|-------------------------------|
A|-------------------------------|-3----3----3----3----3----3----|-5----5----5----5----5----5----|
E|-3----3----3----3----3----3----|-------------------------------|-------------------------------|


E|-------------------------------|-------------------------------|-------------------------------|
B|-------------------------------|-------------------------------|-------------------------------|
G|-------------------------------|-------------------------------|-------------------------------|
D|-------------------------------|-------------------------------|-------------------------------|
A|-3----3----3----3----3----3----|-------------------------------|-3----3----3----3----3----3----|
E|-------------------------------|-3----3----3----3----3----3----|-------------------------------|


E|-------------------------------|-----------------------------------------------------|
B|-------------------------------|-----------------------------------------------------|
G|-------------------------------|-----------------------------------------------------|
D|-------------------------------|-----------------------------------------------------|
A|-5----5----5----5----5----5----|-5----5---5---5----5---5---5----5---5---5----5---5---|
E|-------------------------------|-----------------------------------------------------|


E|-----------------------------------------------------|-----------------------------------------------------|
B|-----------------------------------------------------|-----------------------------------------------------|
G|-----------------------------------------------------|-----------------------------------------------------|
D|-----------------------------------------------------|-----------------------------------------------------|
A|-3----3---3---3----3---3---3----3---3---3----3---3---|-8----8---8---8----8---8---8----8---8---8----8---8---|
E|-----------------------------------------------------|-----------------------------------------------------|


E|-----------------------------------------------------|-----------------------------------------------------|
B|-----------------------------------------------------|-----------------------------------------------------|
G|-----------------------------------------------------|-----------------------------------------------------|
D|-----------------------------------------------------|-----------------------------------------------------|
A|-5----5---5---5----5---5---5----5---5---5----5---5---|-5----5---5---5----5---5---5----5---5---5----5---5---|
E|-----------------------------------------------------|-----------------------------------------------------|


E|-----------------------------------------------------|-----------------------------------------------------|
B|-----------------------------------------------------|-----------------------------------------------------|
G|-----------------------------------------------------|-----------------------------------------------------|
D|-----------------------------------------------------|-----------------------------------------------------|
A|-3----3---3---3----3---3---3----3---3---3----3---3---|-8----8---8---8----8---8---8----8---8---8----8---8---|
E|-----------------------------------------------------|-----------------------------------------------------|


E|-----------------------------------------------------|-----------------------------------------------------|
B|-----------------------------------------------------|-----------------------------------------------------|
G|-----------------------------------------------------|-----------------------------------------------------|
D|-----------------------------------------------------|-----------------------------------------------------|
A|-5----5---5---5----5---5---5----5---5---5----5---5---|-5----5---5---5----5---5---5----5---5---5----5---5---|
E|-----------------------------------------------------|-----------------------------------------------------|


E|-----------------------------------------------------|-----------------------------------------------------|
B|-----------------------------------------------------|-----------------------------------------------------|
G|-----------------------------------------------------|-----------------------------------------------------|
D|-----------------------------------------------------|-----------------------------------------------------|
A|-3----3---3---3----3---3---3----3---3---3----3---3---|-8----8---8---8----8---8---8----8---8---8----8---8---|
E|-----------------------------------------------------|-----------------------------------------------------|


E|-----------------------------------------------------|-----------------------------------------------------|
B|-----------------------------------------------------|-----------------------------------------------------|
G|-----------------------------------------------------|-----------------------------------------------------|
D|-----------------------------------------------------|-----------------------------------------------------|
A|-5----5---5---5----5---5---5----5---5---5----5---5---|-5----5---5---5----5---5---5----5---5---5----5---5---|
E|-----------------------------------------------------|-----------------------------------------------------|


E|-----------------------------------------------------|-----------------------------------------------------|
B|-----------------------------------------------------|-----------------------------------------------------|
G|-----------------------------------------------------|-----------------------------------------------------|
D|-----------------------------------------------------|-----------------------------------------------------|
A|-3----3---3---3----3---3---3----3---3---3----3---3---|-8----8---8---8----8---8---8----8---8---8----8---8---|
E|-----------------------------------------------------|-----------------------------------------------------|


E|-----------------------------------------------------|-----------------------------------------------------|
B|-----------------------------------------------------|-----------------------------------------------------|
G|-----------------------------------------------------|-----------------------------------------------------|
D|-----------------------------------------------------|-----------------------------------------------------|
A|-5----5---5---5----5---5---5----5---5---5----5---5---|-----------------------------------------------------|
E|-----------------------------------------------------|-2---2---2----2---2---2----2---2---2----2---2---2----|


E|-----------------------------------------------------|-----------------------------------------------------|
B|-----------------------------------------------------|-----------------------------------------------------|
G|-----------------------------------------------------|-----------------------------------------------------|
D|-----------------------------------------------------|-----------------------------------------------------|
A|-7---7---7----7---7---7----7---7---7----7---7---7----|-5---5---5----5---5---5----5---5---5----5---5---5----|
E|-----------------------------------------------------|-----------------------------------------------------|


E|-----------------------------------------------------|-----------------------------------------------------|
B|-----------------------------------------------------|-----------------------------------------------------|
G|-----------------------------------------------------|-----------------------------------------------------|
D|-----------------------------------------------------|-----------------------------------------------------|
A|-2---2---2----2---2---2----0---0---0----0---0---0----|-----------------------------------------------------|
E|-----------------------------------------------------|-2---2---2----2---2---2----2---2---2----2---2---2----|


E|-----------------------------------------------------|-----------------------------------------------------|
B|-----------------------------------------------------|-----------------------------------------------------|
G|-----------------------------------------------------|-----------------------------------------------------|
D|-----------------------------------------------------|-----------------------------------------------------|
A|-7---7---7----7---7---7----7---7---7----7---7---7----|-5---5---5----5---5---5----5---5---5----5---5---5----|
E|-----------------------------------------------------|-----------------------------------------------------|


E|-----------------------------------------------------|-----------------------------------------------------|
B|-----------------------------------------------------|-----------------------------------------------------|
G|-----------------------------------------------------|-----------------------------------------------------|
D|-----------------------------------------------------|-----------------------------------------------------|
A|-----------------------------------------------------|-----------------------------------------------------|
E|-2---2---2----2---2---2----2---2---2----2---2---2----|-2---2---2----2---2---2----2---2---2----2---2---2----|


E|-----------------------------------------------------|-----------------------------------------------------|
B|-----------------------------------------------------|-----------------------------------------------------|
G|-----------------------------------------------------|-----------------------------------------------------|
D|-----------------------------------------------------|-----------------------------------------------------|
A|-7---7---7----7---7---7----7---7---7----7---7---7----|-5---5---5----5---5---5----5---5---5----5---5---5----|
E|-----------------------------------------------------|-----------------------------------------------------|


E|-----------------------------------------------------|-----------------------------------------------------|
B|-----------------------------------------------------|-----------------------------------------------------|
G|-----------------------------------------------------|-----------------------------------------------------|
D|-----------------------------------------------------|-----------------------------------------------------|
A|-2---2---2----2---2---2----0---0---0----0---0---0----|-----------------------------------------------------|
E|-----------------------------------------------------|-2---2---2----2---2---2----2---2---2----2---2---2----|


E|-----------------------------------------------------|-----------------------------------------------------|
B|-----------------------------------------------------|-----------------------------------------------------|
G|-----------------------------------------------------|-----------------------------------------------------|
D|-----------------------------------------------------|-----------------------------------------------------|
A|-7---7---7----7---7---7----7---7---7----7---7---7----|-5---5---5----5---5---5----5---5---5----5---5---5----|
E|-----------------------------------------------------|-----------------------------------------------------|


E|-----------------------------------------------------|-----------------------------------------------------|
B|-----------------------------------------------------|-----------------------------------------------------|
G|-----------------------------------------------------|-----------------------------------------------------|
D|-----------------------------------------------------|-----------------------------------------------------|
A|-----------------------------------------------------|-0----0---0---0----0---0---0----0---0---0----0---0---|
E|-2---2---2----2---2---2----2---2---2----2---2---2----|-----------------------------------------------------|


E|-----------------------------------------------------|-----------------------------------------------------|
B|-----------------------------------------------------|-----------------------------------------------------|
G|-----------------------------------------------------|-----------------------------------------------------|
D|-----------------------------------------------------|-----------------------------------------------------|
A|-5----5---5---5----5---5---5----5---5---5----5---5---|-3----3---3---3----3---3---3----3---3---3----3---3---|
E|-----------------------------------------------------|-----------------------------------------------------|


E|-----------------------------------------------------|-----------------------------------------------------|
B|-----------------------------------------------------|-----------------------------------------------------|
G|-----------------------------------------------------|-----------------------------------------------------|
D|-----------------------------------------------------|-----------------------------------------------------|
A|-0----0---0---0----0---0---0----0---0---0----0---0---|-0----0---0---0----0---0---0----0---0---0----0---0---|
E|-----------------------------------------------------|-----------------------------------------------------|


E|-----------------------------------------------------|-----------------------------------------------------|
B|-----------------------------------------------------|-----------------------------------------------------|
G|-----------------------------------------------------|-----------------------------------------------------|
D|-----------------------------------------------------|-----------------------------------------------------|
A|-5----5---5---5----5---5---5----5---5---5----5---5---|-3----3---3---3----3---3---3----3---3---3----3---3---|
E|-----------------------------------------------------|-----------------------------------------------------|


E|-----------------------------------------------------|-----------------------------------------------------|
B|-----------------------------------------------------|-----------------------------------------------------|
G|-----------------------------------------------------|-----------------------------------------------------|
D|-----------------------------------------------------|-----------------------------------------------------|
A|-0----0---0---0----0---0---0----0---0---0----0---0---|-7----7---7---7----7---7---7----7---7---7----7---7---|
E|-----------------------------------------------------|-----------------------------------------------------|


E|-----------------------------------------------------|-----------------------------------------------------|
B|-----------------------------------------------------|-----------------------------------------------------|
G|-----------------------------------------------------|-----------------------------------------------------|
D|-----------------------------------------------------|-----------------------------------------------------|
A|-12---12--12--12---12--12--12---12--12--12---12--12--|-10---10--10--10---10--10--10---10--10--10---10--10--|
E|-----------------------------------------------------|-----------------------------------------------------|


E|-----------------------------------------------------|-----------------------------------------------------|
B|-----------------------------------------------------|-----------------------------------------------------|
G|-----------------------------------------------------|-----------------------------------------------------|
D|-----------------------------------------------------|-----------------------------------------------------|
A|-7----7---7---7----7---7---7----7---7---7----7---7---|-7----7---7---7----7---7---7----7---7---7----7---7---|
E|-----------------------------------------------------|-----------------------------------------------------|


E|-----------------------------------------------------|-----------------------------------------------------|
B|-----------------------------------------------------|-----------------------------------------------------|
G|-----------------------------------------------------|-----------------------------------------------------|
D|-----------------------------------------------------|-----------------------------------------------------|
A|-12---12--12--12---12--12--12---12--12--12---12--12--|-10---10--10--10---10--10--10---10--10--10---10--10--|
E|-----------------------------------------------------|-----------------------------------------------------|


E|-----------------------------------------------------|-------------------------|-------------------------|
B|-----------------------------------------------------|-------------------------|-------------------------|
G|-----------------------------------------------------|-9-----7-----5-----4-----|-5-----4-----5-----7-----|
D|-----------------------------------------------------|-9-----7-----5-----4-----|-5-----4-----5-----7-----|
A|-7----7---7---7----7---7---7----7---7---7----7---7---|-7-----5-----3-----2-----|-3-----2-----3-----5-----|
E|-----------------------------------------------------|-------------------------|-------------------------|


E|---------|---------|---------|-----------------------------------------|-----------------------------------------|
B|---------|---------|---------|-----------------------------------------|-----------------------------------------|
G|-2-------|-2-------|-2-------|-----------------------------------------|-----------------------------------------|
D|-2-------|-2-------|-2-------|-----------------------------------------|-----------------------------------------|
A|-0-------|-0-------|-0-------|------2---------2---------2---------2----|------5---------5---------7---------7----|
E|---------|---------|---------|-0---------0---------0---------0---------|-3---------3---------5---------5---------|


E|-----------------------------------------|-----------------------------------------|
B|-----------------------------------------|-----------------------------------------|
G|-----------------------------------------|-----------------------------------------|
D|-----------------------------------------|-----------------------------------------|
A|------2---------2---------2---------2----|------5---------5---------7---------7----|
E|-0---------0---------0---------0---------|-3---------3---------5---------5---------|


E|-----------------------------------------|-----------------------------------------|
B|-----------------------------------------|-----------------------------------------|
G|-----------------------------------------|-----------------------------------------|
D|------5---------5---------7---------7----|------5---------5---------7---------7----|
A|-3---------3---------5---------5---------|-3---------3---------5---------5---------|
E|-----------------------------------------|-----------------------------------------|


E|-----------------------------------------|-----------------------------------------|
B|-----------------------------------------|-----------------------------------------|
G|-----------------------------------------|-----------------------------------------|
D|-----------------------------------------|-----------------------------------------|
A|------2---------2---------2---------2----|------2---------2---------2---------2----|
E|-0---------0---------0---------0---------|-0---------0---------0---------0---------|


E|-----------------------------------------|-----------------------------------------|
B|-----------------------------------------|-----------------------------------------|
G|-----------------------------------------|-----------------------------------------|
D|-----------------------------------------|-----------------------------------------|
A|------2---------2---------2---------2----|------5---------5---------7---------7----|
E|-0---------0---------0---------0---------|-3---------3---------5---------5---------|


E|-----------------------------------------|-----------------------------------------|
B|-----------------------------------------|-----------------------------------------|
G|-----------------------------------------|-----------------------------------------|
D|-----------------------------------------|-----------------------------------------|
A|------2---------2---------2---------2----|------5---------5---------7---------7----|
E|-0---------0---------0---------0---------|-3---------3---------5---------5---------|


E|-----------------------------------------|-----------------------------------------|
B|-----------------------------------------|-----------------------------------------|
G|-----------------------------------------|-----------------------------------------|
D|------5---------5---------7---------7----|------5---------5---------7---------7----|
A|-3---------3---------5---------5---------|-3---------3---------5---------5---------|
E|-----------------------------------------|-----------------------------------------|


E|-----------------------------------------|-----------------------------------------|
B|-----------------------------------------|-----------------------------------------|
G|-----------------------------------------|-----------------------------------------|
D|-----------------------------------------|-----------------------------------------|
A|------2---------2---------2---------2----|------2---------2---------2---------2----|
E|-0---------0---------0---------0---------|-0---------0---------0---------0---------|


E|-----------------------------------------|-----------------------------------------|
B|-----------------------------------------|-----------------------------------------|
G|-----------------------------------------|-----------------------------------------|
D|-----------------------------------------|-----------------------------------------|
A|------2---------2---------2---------2----|------5---------5---------7---------7----|
E|-0---------0---------0---------0---------|-3---------3---------5---------5---------|


E|-----------------------------------------|-----------------------------------------|
B|-----------------------------------------|-----------------------------------------|
G|-----------------------------------------|-----------------------------------------|
D|-----------------------------------------|-----------------------------------------|
A|------2---------2---------2---------2----|------5---------5---------7---------7----|
E|-0---------0---------0---------0---------|-3---------3---------5---------5---------|


E|-----------------------------------------|-----------------------------------------|
B|-----------------------------------------|-----------------------------------------|
G|-----------------------------------------|-----------------------------------------|
D|------5---------5---------7---------7----|------5---------5---------7---------7----|
A|-3---------3---------5---------5---------|-3---------3---------5---------5---------|
E|-----------------------------------------|-----------------------------------------|


E|-----------------------------------------|-----------------------------------------|
B|-----------------------------------------|-----------------------------------------|
G|-----------------------------------------|-----------------------------------------|
D|-----------------------------------------|-----------------------------------------|
A|------2---------2---------2---------2----|------2---------2---------2---------2----|
E|-0---------0---------0---------0---------|-0---------0---------0---------0---------|


E|-----------------------------------------|-----------------------------------------|
B|-----------------------------------------|-----------------------------------------|
G|-----------------------------------------|-----------------------------------------|
D|-----------------------------------------|-----------------------------------------|
A|------2---------2---------2---------2----|------5---------5---------7---------7----|
E|-0---------0---------0---------0---------|-3---------3---------5---------5---------|


E|-----------------------------------------|-----------------------------------------|
B|-----------------------------------------|-----------------------------------------|
G|-----------------------------------------|-----------------------------------------|
D|-----------------------------------------|-----------------------------------------|
A|------2---------2---------2---------2----|------5---------5---------7---------7----|
E|-0---------0---------0---------0---------|-3---------3---------5---------5---------|


E|-----------------------------------------|-----------------------------------------|
B|-----------------------------------------|-----------------------------------------|
G|-----------------------------------------|-----------------------------------------|
D|------5---------5---------7---------7----|------5---------5---------7---------7----|
A|-3---------3---------5---------5---------|-3---------3---------5---------5---------|
E|-----------------------------------------|-----------------------------------------|


E|-----------------------------------------|-----------------------------------------|
B|-----------------------------------------|-----------------------------------------|
G|-----------------------------------------|-----------------------------------------|
D|-----------------------------------------|-----------------------------------------|
A|------2---------2---------2---------2----|------2---------2---------2---------2----|
E|-0---------0---------0---------0---------|-0---------0---------0---------0---------|


E|-----------------------------------------|-----------------------------------------|
B|-----------------------------------------|-----------------------------------------|
G|-----------------------------------------|-----------------------------------------|
D|-----------------------------------------|-----------------------------------------|
A|------2---------2---------2---------2----|------5---------5---------7---------7----|
E|-0---------0---------0---------0---------|-3---------3---------5---------5---------|


E|-----------------------------------------|-----------------------------------------|
B|-----------------------------------------|-----------------------------------------|
G|-----------------------------------------|-----------------------------------------|
D|-----------------------------------------|-----------------------------------------|
A|------2---------2---------2---------2----|------5---------5---------7---------7----|
E|-0---------0---------0---------0---------|-3---------3---------5---------5---------|


E|-----------------------------------------|-----------------------------------------|
B|-----------------------------------------|-----------------------------------------|
G|-----------------------------------------|-----------------------------------------|
D|------5---------5---------7---------7----|------5---------5---------7---------7----|
A|-3---------3---------5---------5---------|-3---------3---------5---------5---------|
E|-----------------------------------------|-----------------------------------------|


E|-----------------------------------------|-----------------------------------------|
B|-----------------------------------------|-----------------------------------------|
G|-----------------------------------------|-----------------------------------------|
D|-----------------------------------------|-----------------------------------------|
A|------2---------2---------2---------2----|------2---------2---------2---------2----|
E|-0---------0---------0---------0---------|-0---------0---------0---------0---------|


E|-----------------------------------------|-----------------------------------------|
B|-----------------------------------------|-----------------------------------------|
G|-----------------------------------------|-----------------------------------------|
D|-----------------------------------------|-----------------------------------------|
A|------2---------2---------2---------2----|------5---------5---------7---------7----|
E|-0---------0---------0---------0---------|-3---------3---------5---------5---------|


E|-----------------------------------------|-----------------------------------------|
B|-----------------------------------------|-----------------------------------------|
G|-----------------------------------------|-----------------------------------------|
D|-----------------------------------------|-----------------------------------------|
A|------2---------2---------2---------2----|------5---------5---------7---------7----|
E|-0---------0---------0---------0---------|-3---------3---------5---------5---------|


E|-----------------------------------------|-----------------------------------------|
B|-----------------------------------------|-----------------------------------------|
G|-----------------------------------------|-----------------------------------------|
D|------5---------5---------7---------7----|------5---------5---------7---------7----|
A|-3---------3---------5---------5---------|-3---------3---------5---------5---------|
E|-----------------------------------------|-----------------------------------------|


E|-----------------------------------------|-----------------------------------------|
B|-----------------------------------------|-----------------------------------------|
G|-----------------------------------------|-----------------------------------------|
D|-----------------------------------------|-----------------------------------------|
A|------2---------2---------2---------2----|------2---------2---------2---------2----|
E|-0---------0---------0---------0---------|-0---------0---------0---------0---------|


E|-----------------------------------------|-----------------------------------------|
B|-----------------------------------------|-----------------------------------------|
G|-----------------------------------------|-----------------------------------------|
D|-----------------------------------------|-----------------------------------------|
A|------2---------2---------2---------2----|------5---------5---------7---------7----|
E|-0---------0---------0---------0---------|-3---------3---------5---------5---------|


E|-----------------------------------------|-----------------------------------------|
B|-----------------------------------------|-----------------------------------------|
G|-----------------------------------------|-----------------------------------------|
D|-----------------------------------------|-----------------------------------------|
A|------2---------2---------2---------2----|------5---------5---------7---------7----|
E|-0---------0---------0---------0---------|-3---------3---------5---------5---------|


E|-----------------------------------------|-----------------------------------------|
B|-----------------------------------------|-----------------------------------------|
G|-----------------------------------------|-----------------------------------------|
D|------5---------5---------7---------7----|------5---------5---------7---------7----|
A|-3---------3---------5---------5---------|-3---------3---------5---------5---------|
E|-----------------------------------------|-----------------------------------------|


E|-----------------------------------------|----------------------------|---------|
B|-----------------------------------------|----------------------------|---------|
G|-----------------------------------------|---------------------0------|-0-------|
D|-----------------------------------------|---------------------2------|-2-------|
A|------2---------2---------2---------2----|------2---------2----2------|-2-------|
E|-0---------0---------0---------0---------|-0---------0---------0------|-0-------|


E|---------|---------|---------|
B|---------|---------|---------|
G|-0-------|-0-------|-0-------|
D|-2-------|-2-------|-2-------|
A|-2-------|-2-------|-2-------|
E|-0-------|-0-------|-0-------|

    

Nézd meg a videót és ismerd meg a leggyorsabb utat, hogyan tanulhatod meg kedvenc számaid gitáron!