Hogyan játszd el gitáron a Unknown Artist – The Hidden Treasure dalt?

Unknown Artist The Hidden Treasure – GITÁR PRO TAB, KOTTA, AKKORDOK

Kotta típusa: Guit2

(Általában egy zeneszám minden kottája: gitár, szólógitár, basszusgitár, ének, zongora, dob stb. megtalálható az oldalon, de mindegyik egy külön bejegyzésben. Ha egy másik hangszer gitártabos kottáját keresed, akkor az oldal alján vagy a keresőben megtalálod. Sokszor a zenekar tagjának a neve lesz a kotta kategóriája.)

        


E|---------|---------|---------|---------|---------|---------12---12------|---------------|
B|---------|---------|---------|---------|---------|-----12--12---12------|---------12----|
G|-%-------|-%-------|-%-------|-%-------|---------|-12--12--12---12------|-%-------------|
D|-%-------|-%-------|-%-------|-%-------|-12------|----------------------|-%-------------|
A|---------|---------|---------|---------|---------|----------------------|---------------|
E|---------|---------|---------|---------|---------|----------------------|---------------|


E|----------------------|---------|---------12---12------|-------------12-----|-12------|
B|----------------------|---------|-----12--12---12------|-12-----------------|---------|
G|-12--12--12---12------|-12------|-12--12--12---12------|-------12-----------|---------|
D|-----12--12---12------|---------|----------------------|--------------------|---------|
A|----------------------|---------|----------------------|--------------------|---------|
E|----------------------|---------|----------------------|--------------------|---------|


E|---------|--------------------|----------------------|-12------|-------------------------|
B|-12------|-------12-----------|---------12---12------|-12------|-------------------------|
G|---------|-12----------12-----|-----12--12---12------|-12------|-9-----5-----7-----7-----|
D|---------|--------------------|-12--12--12---12------|-12------|-9-----5-----7-----7-----|
A|---------|--------------------|----------------------|---------|-------------------------|
E|---------|--------------------|----------------------|---------|-------------------------|


E|--------------------------------|-------------------------|--------------------------------|
B|--------------------------------|-------------------------|--------------------------------|
G|-9-----12----11--9---7----9-----|-9-----5-----7-----7-----|-12----11----9---11--9----7-----|
D|--------------------------------|-9-----5-----7-----7-----|--------------------------------|
A|--------------------------------|-------------------------|--------------------------------|
E|--------------------------------|-------------------------|--------------------------------|


E|-------------------------|--------------------------------|-------------------------|
B|-------------------------|--------------------------------|-------------------------|
G|-7-----2-----5-----5-----|-9-----12----11--9---7----9-----|-7-----2-----5-----5-----|
D|-7-----2-----5-----5-----|--------------------------------|-7-----2-----5-----5-----|
A|-------------------------|--------------------------------|-------------------------|
E|-------------------------|--------------------------------|-------------------------|


E|--------------------------------|-------------------------|--------------------------------|
B|--------------------------------|-------------------------|--------------------------------|
G|-7-----9-----12--11--12---9-----|-7-----5-----9-----9-----|-9-----12----11--9---7----9-----|
D|--------------------------------|-7-----5-----9-----9-----|--------------------------------|
A|--------------------------------|-------------------------|--------------------------------|
E|--------------------------------|-------------------------|--------------------------------|


E|-------------------------|--------------------------------|-------------------------|
B|-------------------------|--------------------------------|-------------------------|
G|-9-----5-----7-----7-----|-9-----7-----5---7---5----7-----|-7-----2-----5-----5-----|
D|-9-----5-----7-----7-----|--------------------------------|-7-----2-----5-----5-----|
A|-------------------------|--------------------------------|-------------------------|
E|-------------------------|--------------------------------|-------------------------|


E|--------------------------------|-------------------------|--------------------------------|
B|--------------------------------|-------------------------|--------------------------------|
G|-7-----9-----11--12--11---9-----|-7-----2-----5-----5-----|-5-----5-----5---5---5----5-----|
D|--------------------------------|-7-----2-----5-----5-----|-5-----5-----5---5---5----5-----|
A|--------------------------------|-------------------------|--------------------------------|
E|--------------------------------|-------------------------|--------------------------------|


E|-----------------------------------------|-----------------------------------------|
B|-----------------------------------------|-----------------------------------------|
G|-----------------------------------------|-----------------------------------------|
D|------9---------9---------9---------9----|------12--------12--------14--------14---|
A|-7---------7---------7---------7---------|-10--------10--------12--------12--------|
E|-----------------------------------------|-----------------------------------------|


E|-----------------------------------------|-----------------------------------------|
B|-----------------------------------------|-----------------------------------------|
G|-----------------------------------------|-----------------------------------------|
D|------9---------9---------9---------9----|------12--------12--------14--------14---|
A|-7---------7---------7---------7---------|-10--------10--------12--------12--------|
E|-----------------------------------------|-----------------------------------------|


E|-----------------------------------------|-----------------------------------------|
B|-----------------------------------------|-----------------------------------------|
G|-----------------------------------------|-----------------------------------------|
D|------5---------5---------7---------7----|------5---------5---------7---------7----|
A|-3---------3---------5---------5---------|-3---------3---------5---------5---------|
E|-----------------------------------------|-----------------------------------------|


E|-----------------------------------------|-----------------------------------------|
B|-----------------------------------------|-----------------------------------------|
G|-----------------------------------------|-----------------------------------------|
D|------9---------9---------9---------9----|------9---------9---------9---------9----|
A|-7---------7---------7---------7---------|-7---------7---------7---------7---------|
E|-----------------------------------------|-----------------------------------------|


E|-------------------|---------------|-------------------|---------------|------------------------|
B|-------------------|---------------|---------10---12---|--------10-----|-13-----12---10---------|
G|-9-------11---12---|-9------11-----|-12----------------|-12------------|------------------12----|
D|-------------------|---------------|-------------------|---------------|------------------------|
A|-------------------|---------------|-------------------|---------------|------------------------|
E|-------------------|---------------|-------------------|---------------|------------------------|


E|------------------------|---------------|---------|-------------------|---------------|
B|-13-----12---10---------|---------------|---------|-12------10--------|-12-----13-----|
G|------------------12----|-11----9-------|-9-------|--------------12---|---------------|
D|------------------------|---------------|---------|-------------------|---------------|
A|------------------------|---------------|---------|-------------------|---------------|
E|------------------------|---------------|---------|-------------------|---------------|


E|-------------------|---------------|------------------------|------------------------|
B|-12------10--------|---------------|------------------10----|------------------10----|
G|--------------12---|-11-----12-----|-9------11---12---------|-9------11---12---------|
D|-------------------|---------------|------------------------|------------------------|
A|-------------------|---------------|------------------------|------------------------|
E|-------------------|---------------|------------------------|------------------------|


E|---------------|---------|-----------------------------------------|-----------------------------------------|
B|---------------|---------|-----------------------------------------|-----------------------------------------|
G|-12----11------|-11------|-----------------------------------------|-----------------------------------------|
D|---------------|---------|------9---------9---------9---------9----|------12--------12--------14--------14---|
A|---------------|---------|-7---------7---------7---------7---------|-10--------10--------12--------12--------|
E|---------------|---------|-----------------------------------------|-----------------------------------------|


E|-----------------------------------------|-----------------------------------------|
B|-----------------------------------------|-----------------------------------------|
G|-----------------------------------------|-----------------------------------------|
D|------9---------9---------9---------9----|------12--------12--------14--------14---|
A|-7---------7---------7---------7---------|-10--------10--------12--------12--------|
E|-----------------------------------------|-----------------------------------------|


E|-----------------------------------------|-----------------------------------------|
B|-----------------------------------------|-----------------------------------------|
G|-----------------------------------------|-----------------------------------------|
D|------5---------5---------7---------7----|------5---------5---------7---------7----|
A|-3---------3---------5---------5---------|-3---------3---------5---------5---------|
E|-----------------------------------------|-----------------------------------------|


E|-----------------------------------------|-----------------------------------------|
B|-----------------------------------------|-----------------------------------------|
G|-----------------------------------------|-----------------------------------------|
D|------9---------9---------9---------9----|------9---------9---------9---------9----|
A|-7---------7---------7---------7---------|-7---------7---------7---------7---------|
E|-----------------------------------------|-----------------------------------------|


E|-----------------------------------------|-----------------------------------------|
B|-----------------------------------------|-----------------------------------------|
G|-----------------------------------------|-----------------------------------------|
D|------9---------9---------9---------9----|------12--------12--------14--------14---|
A|-7---------7---------7---------7---------|-10--------10--------12--------12--------|
E|-----------------------------------------|-----------------------------------------|


E|-----------------------------------------|-----------------------------------------|
B|-----------------------------------------|-----------------------------------------|
G|-----------------------------------------|-----------------------------------------|
D|------9---------9---------9---------9----|------12--------12--------14--------14---|
A|-7---------7---------7---------7---------|-10--------10--------12--------12--------|
E|-----------------------------------------|-----------------------------------------|


E|-----------------------------------------|-----------------------------------------|
B|-----------------------------------------|-----------------------------------------|
G|-----------------------------------------|-----------------------------------------|
D|------5---------5---------7---------7----|------5---------5---------7---------7----|
A|-3---------3---------5---------5---------|-3---------3---------5---------5---------|
E|-----------------------------------------|-----------------------------------------|


E|-----------------------------------------|-----------------------------------------|
B|-----------------------------------------|-----------------------------------------|
G|-----------------------------------------|-----------------------------------------|
D|------9---------9---------9---------9----|------9---------9---------9---------9----|
A|-7---------7---------7---------7---------|-7---------7---------7---------7---------|
E|-----------------------------------------|-----------------------------------------|


E|-----------------------------------------|-----------------------------------------|
B|-----------------------------------------|-----------------------------------------|
G|-----------------------------------------|-----------------------------------------|
D|------9---------9---------9---------9----|------12--------12--------14--------14---|
A|-7---------7---------7---------7---------|-10--------10--------12--------12--------|
E|-----------------------------------------|-----------------------------------------|


E|-----------------------------------------|-----------------------------------------|
B|-----------------------------------------|-----------------------------------------|
G|-----------------------------------------|-----------------------------------------|
D|------9---------9---------9---------9----|------12--------12--------14--------14---|
A|-7---------7---------7---------7---------|-10--------10--------12--------12--------|
E|-----------------------------------------|-----------------------------------------|


E|-----------------------------------------|-----------------------------------------|
B|-----------------------------------------|-----------------------------------------|
G|-----------------------------------------|-----------------------------------------|
D|------5---------5---------7---------7----|------5---------5---------7---------7----|
A|-3---------3---------5---------5---------|-3---------3---------5---------5---------|
E|-----------------------------------------|-----------------------------------------|


E|-----------------------------------------|-----------------------------------------|
B|-----------------------------------------|-----------------------------------------|
G|-----------------------------------------|-----------------------------------------|
D|------9---------9---------9---------9----|------9---------9---------9---------9----|
A|-7---------7---------7---------7---------|-7---------7---------7---------7---------|
E|-----------------------------------------|-----------------------------------------|


E|-----------------------------------------|-----------------------------------------|
B|-----------------------------------------|-----------------------------------------|
G|-----------------------------------------|-----------------------------------------|
D|------9---------9---------9---------9----|------12--------12--------14--------14---|
A|-7---------7---------7---------7---------|-10--------10--------12--------12--------|
E|-----------------------------------------|-----------------------------------------|


E|-----------------------------------------|-----------------------------------------|
B|-----------------------------------------|-----------------------------------------|
G|-----------------------------------------|-----------------------------------------|
D|------9---------9---------9---------9----|------12--------12--------14--------14---|
A|-7---------7---------7---------7---------|-10--------10--------12--------12--------|
E|-----------------------------------------|-----------------------------------------|


E|-----------------------------------------|-----------------------------------------|
B|-----------------------------------------|-----------------------------------------|
G|-----------------------------------------|-----------------------------------------|
D|------5---------5---------7---------7----|------5---------5---------7---------7----|
A|-3---------3---------5---------5---------|-3---------3---------5---------5---------|
E|-----------------------------------------|-----------------------------------------|


E|-----------------------------------------|-----------------------------------------|
B|-----------------------------------------|-----------------------------------------|
G|-----------------------------------------|-----------------------------------------|
D|------9---------9---------9---------9----|------9---------9---------9---------9----|
A|-7---------7---------7---------7---------|-7---------7---------7---------7---------|
E|-----------------------------------------|-----------------------------------------|


E|-------------------------|--------------------------------|-------------|-------------------------------------------|
B|-------------------------|--------------------------------|-------------|-------------------------------------------|
G|-9-----5-----7-----7-----|-9-----12----11--9---7----9-----|-9-----5-----|-------------------------------------------|
D|-9-----5-----7-----7-----|--------------------------------|-9-----5-----|-5---7---9----9---9---9----7---7---5---5---|
A|-------------------------|--------------------------------|-7-----3-----|-------------------------------------------|
E|-------------------------|--------------------------------|-------------|-------------------------------------------|


E|-------------------------------------------|-------------------------------------------|
B|-------------------------------------------|-------------------------------------------|
G|-------------------------------------------|-------------------------------------------|
D|-5---7---9----9---9---9----7---7---5---5---|-5---7---9----9---9---9----7---7---5---5---|
A|-------------------------------------------|-------------------------------------------|
E|-------------------------------------------|-------------------------------------------|


E|---------------------------------|-------------------------------------------|-------------------------------------------|
B|---------------------------------|-------------------------------------------|-------------------------------------------|
G|---------------------------------|-------------------------------------------|-------------------------------------------|
D|-5---7---9----9---9---9----10----|-5---7---9----9---9---9----7---7---5---5---|-5---7---9----9---9---9----7---7---5---5---|
A|---------------------------------|-------------------------------------------|-------------------------------------------|
E|---------------------------------|-------------------------------------------|-------------------------------------------|


E|-------------------------------------------|---------------------------------|---------------|
B|-------------------------------------------|---------------------------------|---------------|
G|-------------------------------------------|---------------------------------|-10-----7------|
D|-5---7---9----9---9---9----7---7---5---5---|-5---7---9----9---9---9----10----|---------------|
A|-------------------------------------------|---------------------------------|---------------|
E|-------------------------------------------|---------------------------------|---------------|


E|---------|-18---17---15------------------------------|---------|---------------------------------1---3---5---6---8----8---0---|
B|-13------|----------------18---17---15---13----------|---------|-----------------------------3--------------------------------|
G|---------|-------------------------------------12----|---------|-----------------0---2---3------------------------------------|
D|---------|-------------------------------------------|-0-------|---------2---3------------------------------------------------|
A|---------|-------------------------------------------|---------|-1---3--------------------------------------------------------|
E|---------|-------------------------------------------|---------|--------------------------------------------------------------|


E|-10----13---12---10-----|-13---12---10-------------------10---|---------|--------------------------------------------------------10---|
B|------------------------|-----------------11---10---11--------|-10------|-----------10---11--------10-------------10---11-------------|
G|------------------------|-------------------------------------|---------|-10---12-------------%---------10---12-------------%---------|
D|------------------------|-------------------------------------|---------|---------------------%-----------------------------%---------|
A|------------------------|-------------------------------------|---------|-------------------------------------------------------------|
E|------------------------|-------------------------------------|---------|-------------------------------------------------------------|


E|-13--12--11--10--13--12--11--10--12--13--15---13--15--17---|-18---17--18--20----20-----18---|
B|-----------------------------------------------------------|--------------------------------|
G|-----------------------------------------------------------|--------------------------------|
D|-----------------------------------------------------------|--------------------------------|
A|-----------------------------------------------------------|--------------------------------|
E|-----------------------------------------------------------|--------------------------------|


E|-22------|-15--13--12------------------------------------------------------|-----------------------------------------------------------------|
B|---------|-------------15--13--------------------------13------15----------|-----------------------------------------------------------------|
G|---------|---------------------15--14--12--15--14--12------15------12--14--|-15--12--14--------------14----------12--------------------------|
D|---------|-----------------------------------------------------------------|-------------15--14--12------15--14------14--12------------------|
A|---------|-----------------------------------------------------------------|-------------------------------------------------15--13--12--13--|
E|---------|-----------------------------------------------------------------|-----------------------------------------------------------------|


E|------------------------------------------|---------|---------|---------|---------|
B|------------------------------------------|---------|---------|---------|---------|
G|------------------------------------------|---------|---------|-9-------|-7-------|
D|------------------------------------------|-15------|-4-------|-9-------|-7-------|
A|-17---15--13--12--13--12---13--15--17-----|---------|-4-------|-7-------|-5-------|
E|------------------------------------------|---------|-2-------|---------|---------|


E|---------------|---------|---------|---------|---------|---------|---------|---------|
B|---------------|---------|---------|---------|---------|---------|---------|---------|
G|-4------2------|---------|-9-------|-7-------|-11------|---------|-9-------|-7-------|
D|-4------2------|-4-------|-9-------|-7-------|-11------|-4-------|-9-------|-7-------|
A|-2------0------|-4-------|-7-------|-5-------|-9-------|-4-------|-7-------|-5-------|
E|---------------|-2-------|---------|---------|---------|-2-------|---------|---------|


E|---------------|---------|---------|---------|---------|--------------------------------|
B|---------------|---------|---------|---------|---------|--------------------------------|
G|-4------2------|---------|-9-------|-7-------|-11------|-5-----7----4---5---7-----4-----|
D|-4------2------|-4-------|-9-------|-7-------|-11------|--------------------------------|
A|-2------0------|-4-------|-7-------|-5-------|-9-------|--------------------------------|
E|---------------|-2-------|---------|---------|---------|--------------------------------|


E|----------------------------------------|--------------------------------|----------------------------------------|
B|----------------------------------------|--------------------------------|----------------------------------------|
G|-5-----7----4---5---7----9----5----7----|-5-----7----4---5---7-----4-----|-5-----7----4---5---7----9----10---12---|
D|----------------------------------------|--------------------------------|----------------------------------------|
A|----------------------------------------|--------------------------------|----------------------------------------|
E|----------------------------------------|--------------------------------|----------------------------------------|


E|--------------------------------|----------------------------------------|--------------------------------|
B|--------------------------------|----------------------------------------|--------------------------------|
G|-5-----7----4---5---7-----4-----|-5-----7----4---5---7----9----5----7----|-5-----7----4---5---7-----4-----|
D|--------------------------------|----------------------------------------|--------------------------------|
A|--------------------------------|----------------------------------------|--------------------------------|
E|--------------------------------|----------------------------------------|--------------------------------|


E|----------------------------------------|--------------------------------|----------------------------------------|
B|----------------------------------------|-8-----10---7---8---10----7-----|-8-----10---7---8---10---12---8----10---|
G|-5-----7----4---5---7----9----10---12---|--------------------------------|----------------------------------------|
D|----------------------------------------|--------------------------------|----------------------------------------|
A|----------------------------------------|--------------------------------|----------------------------------------|
E|----------------------------------------|--------------------------------|----------------------------------------|


E|--------------------------------|----------------------------------------|--------------------------------|
B|-8-----10---7---8---10----7-----|-8-----10---7---8---10---12---13---15---|-8-----10---7---8---10----7-----|
G|--------------------------------|----------------------------------------|--------------------------------|
D|--------------------------------|----------------------------------------|--------------------------------|
A|--------------------------------|----------------------------------------|--------------------------------|
E|--------------------------------|----------------------------------------|--------------------------------|


E|----------------------------------------|--------------------------------|----------------------------------------|
B|-8-----10---7---8---10---12---8----10---|-8-----10---7---8---10----7-----|-8-----10---7---8---10---12---13---15---|
G|----------------------------------------|--------------------------------|----------------------------------------|
D|----------------------------------------|--------------------------------|----------------------------------------|
A|----------------------------------------|--------------------------------|----------------------------------------|
E|----------------------------------------|--------------------------------|----------------------------------------|


E|-------------------------|-------------------------|---------|---------|---------|
B|-------------------------|-------------------------|---------|---------|---------|
G|-9-----7-----5-----4-----|-5-----4-----5-----7-----|-2-------|-2-------|-2-------|
D|-9-----7-----5-----4-----|-5-----4-----5-----7-----|-2-------|-2-------|-2-------|
A|-7-----5-----3-----2-----|-3-----2-----3-----5-----|-0-------|-0-------|-0-------|
E|-------------------------|-------------------------|---------|---------|---------|


E|-----------------------------------------|-----------------------------------------|
B|-----------------------------------------|-----------------------------------------|
G|-----------------------------------------|-----------------------------------------|
D|------9---------9---------9---------9----|------12--------12--------14--------14---|
A|-7---------7---------7---------7---------|-10--------10--------12--------12--------|
E|-----------------------------------------|-----------------------------------------|


E|-----------------------------------------|-----------------------------------------|
B|-----------------------------------------|-----------------------------------------|
G|-----------------------------------------|-----------------------------------------|
D|------9---------9---------9---------9----|------12--------12--------14--------14---|
A|-7---------7---------7---------7---------|-10--------10--------12--------12--------|
E|-----------------------------------------|-----------------------------------------|


E|-----------------------------------------|-----------------------------------------|
B|-----------------------------------------|-----------------------------------------|
G|-----------------------------------------|-----------------------------------------|
D|------5---------5---------7---------7----|------5---------5---------7---------7----|
A|-3---------3---------5---------5---------|-3---------3---------5---------5---------|
E|-----------------------------------------|-----------------------------------------|


E|-----------------------------------------|-----------------------------------------|
B|-----------------------------------------|-----------------------------------------|
G|-----------------------------------------|-----------------------------------------|
D|------9---------9---------9---------9----|------9---------9---------9---------9----|
A|-7---------7---------7---------7---------|-7---------7---------7---------7---------|
E|-----------------------------------------|-----------------------------------------|


E|-----------------------------------------|-----------------------------------------|
B|-----------------------------------------|-----------------------------------------|
G|-----------------------------------------|-----------------------------------------|
D|------9---------9---------9---------9----|------12--------12--------14--------14---|
A|-7---------7---------7---------7---------|-10--------10--------12--------12--------|
E|-----------------------------------------|-----------------------------------------|


E|-----------------------------------------|-----------------------------------------|
B|-----------------------------------------|-----------------------------------------|
G|-----------------------------------------|-----------------------------------------|
D|------9---------9---------9---------9----|------12--------12--------14--------14---|
A|-7---------7---------7---------7---------|-10--------10--------12--------12--------|
E|-----------------------------------------|-----------------------------------------|


E|-----------------------------------------|-----------------------------------------|
B|-----------------------------------------|-----------------------------------------|
G|-----------------------------------------|-----------------------------------------|
D|------5---------5---------7---------7----|------5---------5---------7---------7----|
A|-3---------3---------5---------5---------|-3---------3---------5---------5---------|
E|-----------------------------------------|-----------------------------------------|


E|-----------------------------------------|-----------------------------------------|
B|-----------------------------------------|-----------------------------------------|
G|-----------------------------------------|-----------------------------------------|
D|------9---------9---------9---------9----|------9---------9---------9---------9----|
A|-7---------7---------7---------7---------|-7---------7---------7---------7---------|
E|-----------------------------------------|-----------------------------------------|


E|-----------------------------------------|-----------------------------------------|
B|-----------------------------------------|-----------------------------------------|
G|-----------------------------------------|-----------------------------------------|
D|------9---------9---------9---------9----|------12--------12--------14--------14---|
A|-7---------7---------7---------7---------|-10--------10--------12--------12--------|
E|-----------------------------------------|-----------------------------------------|


E|-----------------------------------------|-----------------------------------------|
B|-----------------------------------------|-----------------------------------------|
G|-----------------------------------------|-----------------------------------------|
D|------9---------9---------9---------9----|------12--------12--------14--------14---|
A|-7---------7---------7---------7---------|-10--------10--------12--------12--------|
E|-----------------------------------------|-----------------------------------------|


E|-----------------------------------------|-----------------------------------------|
B|-----------------------------------------|-----------------------------------------|
G|-----------------------------------------|-----------------------------------------|
D|------5---------5---------7---------7----|------5---------5---------7---------7----|
A|-3---------3---------5---------5---------|-3---------3---------5---------5---------|
E|-----------------------------------------|-----------------------------------------|


E|-----------------------------------------|-----------------------------------------|
B|-----------------------------------------|-----------------------------------------|
G|-----------------------------------------|-----------------------------------------|
D|------9---------9---------9---------9----|------9---------9---------9---------9----|
A|-7---------7---------7---------7---------|-7---------7---------7---------7---------|
E|-----------------------------------------|-----------------------------------------|


E|-----------------------------------------|-----------------------------------------|
B|-----------------------------------------|-----------------------------------------|
G|-----------------------------------------|-----------------------------------------|
D|------9---------9---------9---------9----|------12--------12--------14--------14---|
A|-7---------7---------7---------7---------|-10--------10--------12--------12--------|
E|-----------------------------------------|-----------------------------------------|


E|-----------------------------------------|-----------------------------------------|
B|-----------------------------------------|-----------------------------------------|
G|-----------------------------------------|-----------------------------------------|
D|------9---------9---------9---------9----|------12--------12--------14--------14---|
A|-7---------7---------7---------7---------|-10--------10--------12--------12--------|
E|-----------------------------------------|-----------------------------------------|


E|-----------------------------------------|-----------------------------------------|
B|-----------------------------------------|-----------------------------------------|
G|-----------------------------------------|-----------------------------------------|
D|------5---------5---------7---------7----|------5---------5---------7---------7----|
A|-3---------3---------5---------5---------|-3---------3---------5---------5---------|
E|-----------------------------------------|-----------------------------------------|


E|-----------------------------------------|-----------------------------------------|
B|-----------------------------------------|-----------------------------------------|
G|-----------------------------------------|-----------------------------------------|
D|------9---------9---------9---------9----|------9---------9---------9---------9----|
A|-7---------7---------7---------7---------|-7---------7---------7---------7---------|
E|-----------------------------------------|-----------------------------------------|


E|-----------------------------------------|-----------------------------------------|
B|-----------------------------------------|-----------------------------------------|
G|-----------------------------------------|-----------------------------------------|
D|------9---------9---------9---------9----|------12--------12--------14--------14---|
A|-7---------7---------7---------7---------|-10--------10--------12--------12--------|
E|-----------------------------------------|-----------------------------------------|


E|-----------------------------------------|-----------------------------------------|
B|-----------------------------------------|-----------------------------------------|
G|-----------------------------------------|-----------------------------------------|
D|------9---------9---------9---------9----|------12--------12--------14--------14---|
A|-7---------7---------7---------7---------|-10--------10--------12--------12--------|
E|-----------------------------------------|-----------------------------------------|


E|-----------------------------------------|-----------------------------------------|
B|-----------------------------------------|-----------------------------------------|
G|-----------------------------------------|-----------------------------------------|
D|------5---------5---------7---------7----|------5---------5---------7---------7----|
A|-3---------3---------5---------5---------|-3---------3---------5---------5---------|
E|-----------------------------------------|-----------------------------------------|


E|-----------------------------------------|-----------------------------------------|
B|-----------------------------------------|-----------------------------------------|
G|-----------------------------------------|-----------------------------------------|
D|------9---------9---------9---------9----|------9---------9---------9---------9----|
A|-7---------7---------7---------7---------|-7---------7---------7---------7---------|
E|-----------------------------------------|-----------------------------------------|


E|-------------------|---------------|-------------------|---------------|------------------------|
B|-------------------|---------------|---------10---12---|--------10-----|-13-----12---10---------|
G|-9-------11---12---|-9------11-----|-12----------------|-12------------|------------------12----|
D|-------------------|---------------|-------------------|---------------|------------------------|
A|-------------------|---------------|-------------------|---------------|------------------------|
E|-------------------|---------------|-------------------|---------------|------------------------|


E|------------------------|---------------|---------|-------------------|---------------|
B|-13-----12---10---------|---------------|---------|-12------10--------|-12-----13-----|
G|------------------12----|-11----9-------|-9-------|--------------12---|---------------|
D|------------------------|---------------|---------|-------------------|---------------|
A|------------------------|---------------|---------|-------------------|---------------|
E|------------------------|---------------|---------|-------------------|---------------|


E|-------------------|---------------|------------------------|------------------------|
B|-12------10--------|---------------|------------------10----|------------------10----|
G|--------------12---|-11-----12-----|-9------11---12---------|-9------11---12---------|
D|-------------------|---------------|------------------------|------------------------|
A|-------------------|---------------|------------------------|------------------------|
E|-------------------|---------------|------------------------|------------------------|


E|---------------|---------|---------|---------|---------|---------|
B|---------------|---------|---------|---------|---------|---------|
G|-12----11------|-11------|-11------|-11------|-11------|-11------|
D|---------------|---------|---------|---------|---------|---------|
A|---------------|---------|---------|---------|---------|---------|
E|---------------|---------|---------|---------|---------|---------|

    

Nézd meg a videót és ismerd meg a leggyorsabb utat, hogyan tanulhatod meg kedvenc számaid gitáron!