Hogyan játszd el gitáron a Unknown Artist – The Hidden Treasure dalt?

Unknown Artist The Hidden Treasure – GITÁR PRO TAB, KOTTA, AKKORDOK

Kotta típusa: Voice

(Általában egy zeneszám minden kottája: gitár, szólógitár, basszusgitár, ének, zongora, dob stb. megtalálható az oldalon, de mindegyik egy külön bejegyzésben. Ha egy másik hangszer gitártabos kottáját keresed, akkor az oldal alján vagy a keresőben megtalálod. Sokszor a zenekar tagjának a neve lesz a kotta kategóriája.)

        


E|---------|---------|---------|---------|---------|---------|---------|---------|---------|
B|---------|---------|---------|---------|---------|---------|---------|---------|---------|
G|-%-------|-%-------|-%-------|-%-------|-%-------|-%-------|-%-------|-%-------|-%-------|
D|-%-------|-%-------|-%-------|-%-------|-%-------|-%-------|-%-------|-%-------|-%-------|
A|---------|---------|---------|---------|---------|---------|---------|---------|---------|
E|---------|---------|---------|---------|---------|---------|---------|---------|---------|


E|---------|---------|---------|---------|---------|---------|---------|---------|---------|
B|---------|---------|---------|---------|---------|---------|---------|---------|---------|
G|-%-------|-%-------|-%-------|-%-------|-%-------|-%-------|-%-------|-%-------|-%-------|
D|-%-------|-%-------|-%-------|-%-------|-%-------|-%-------|-%-------|-%-------|-%-------|
A|---------|---------|---------|---------|---------|---------|---------|---------|---------|
E|---------|---------|---------|---------|---------|---------|---------|---------|---------|


E|---------|---------|---------|---------|---------|---------|---------|---------|---------|
B|---------|---------|---------|---------|---------|---------|---------|---------|---------|
G|-%-------|-%-------|-%-------|-%-------|-%-------|-%-------|-%-------|-%-------|-%-------|
D|-%-------|-%-------|-%-------|-%-------|-%-------|-%-------|-%-------|-%-------|-%-------|
A|---------|---------|---------|---------|---------|---------|---------|---------|---------|
E|---------|---------|---------|---------|---------|---------|---------|---------|---------|


E|---------|---------|---------|---------|---------|---------|---------|---------|---------|
B|---------|---------|---------|---------|---------|---------|---------|---------|---------|
G|-%-------|-%-------|-%-------|-%-------|-%-------|-%-------|-%-------|-%-------|-%-------|
D|-%-------|-%-------|-%-------|-%-------|-%-------|-%-------|-%-------|-%-------|-%-------|
A|---------|---------|---------|---------|---------|---------|---------|---------|---------|
E|---------|---------|---------|---------|---------|---------|---------|---------|---------|


E|---------|---------|---------|---------|---------|---------|---------|---------|---------|
B|---------|---------|---------|---------|---------|---------|---------|---------|---------|
G|-%-------|-%-------|-%-------|-%-------|-%-------|-%-------|-%-------|-%-------|-%-------|
D|-%-------|-%-------|-%-------|-%-------|-%-------|-%-------|-%-------|-%-------|-%-------|
A|---------|---------|---------|---------|---------|---------|---------|---------|---------|
E|---------|---------|---------|---------|---------|---------|---------|---------|---------|


E|---------|---------|---------|---------|---------|---------|---------|---------|---------|
B|---------|---------|---------|---------|---------|---------|---------|---------|---------|
G|-%-------|-%-------|-%-------|-%-------|-%-------|-%-------|-%-------|-%-------|-%-------|
D|-%-------|-%-------|-%-------|-%-------|-%-------|-%-------|-%-------|-%-------|-%-------|
A|---------|---------|---------|---------|---------|---------|---------|---------|---------|
E|---------|---------|---------|---------|---------|---------|---------|---------|---------|


E|---------|---------|-------12-----14---15---|-15----14---15---17----15----|-12-----14---15---12----|
B|---------|---------|------------------------|-----------------------------|------------------------|
G|-%-------|-%-------|-%----------------------|-----------------------------|------------------------|
D|-%-------|-%-------|-%----------------------|-----------------------------|------------------------|
A|---------|---------|------------------------|-----------------------------|------------------------|
E|---------|---------|------------------------|-----------------------------|------------------------|


E|-15-----15---17----------|-15----15---15---17----------|-15----15---15---17----17----|
B|-------------------------|-----------------------------|-----------------------------|
G|--------------------%----|-----------------------%-----|-----------------------------|
D|--------------------%----|-----------------------%-----|-----------------------------|
A|-------------------------|-----------------------------|-----------------------------|
E|-------------------------|-----------------------------|-----------------------------|


E|-15----12-----------|---------|-------12-----14---15---|-15----14---15---17----15----|
B|--------------------|---------|------------------------|-----------------------------|
G|--------------%-----|-%-------|-%----------------------|-----------------------------|
D|--------------%-----|-%-------|-%----------------------|-----------------------------|
A|--------------------|---------|------------------------|-----------------------------|
E|--------------------|---------|------------------------|-----------------------------|


E|-12-----14---15---12----|-15-----15---17----------|-15----15---15---17----------|
B|------------------------|-------------------------|-----------------------------|
G|------------------------|--------------------%----|-----------------------%-----|
D|------------------------|--------------------%----|-----------------------%-----|
A|------------------------|-------------------------|-----------------------------|
E|------------------------|-------------------------|-----------------------------|


E|-15----15---15---17----17----|-15----12-----------|---------|-------15-----15---14---|
B|-----------------------------|--------------------|---------|------------------------|
G|-----------------------------|--------------%-----|-%-------|-%----------------------|
D|-----------------------------|--------------%-----|-%-------|-%----------------------|
A|-----------------------------|--------------------|---------|------------------------|
E|-----------------------------|--------------------|---------|------------------------|


E|-15----15---17---17----19----|-15-----15---14---12----|-15-----15---17----------|
B|-----------------------------|------------------------|-------------------------|
G|-----------------------------|------------------------|--------------------%----|
D|-----------------------------|------------------------|--------------------%----|
A|-----------------------------|------------------------|-------------------------|
E|-----------------------------|------------------------|-------------------------|


E|-12----12---14---15----------|-12----10---12---14----14----|-12----12-----------|
B|-----------------------------|-----------------------------|--------------------|
G|-----------------------%-----|-----------------------------|--------------%-----|
D|-----------------------%-----|-----------------------------|--------------%-----|
A|-----------------------------|-----------------------------|--------------------|
E|-----------------------------|-----------------------------|--------------------|


E|---------|-------12-----14---15---|-15----14---15---17----15----|-12-----14---15---12----|
B|---------|------------------------|-----------------------------|------------------------|
G|-%-------|-%----------------------|-----------------------------|------------------------|
D|-%-------|-%----------------------|-----------------------------|------------------------|
A|---------|------------------------|-----------------------------|------------------------|
E|---------|------------------------|-----------------------------|------------------------|


E|-15-----15---17----------|-15----15---15---17----------|-15----15---15---17----17----|
B|-------------------------|-----------------------------|-----------------------------|
G|--------------------%----|-----------------------%-----|-----------------------------|
D|--------------------%----|-----------------------%-----|-----------------------------|
A|-------------------------|-----------------------------|-----------------------------|
E|-------------------------|-----------------------------|-----------------------------|


E|-15----12-----------|---------|---------|---------|--------|---------|---------|---------|
B|--------------------|---------|---------|---------|--------|---------|---------|---------|
G|--------------%-----|-%-------|-%-------|-%-------|-%------|-%-------|-%-------|-%-------|
D|--------------%-----|-%-------|-%-------|-%-------|-%------|-%-------|-%-------|-%-------|
A|--------------------|---------|---------|---------|--------|---------|---------|---------|
E|--------------------|---------|---------|---------|--------|---------|---------|---------|


E|---------|---------|---------|---------|---------|---------|---------|---------|---------|
B|---------|---------|---------|---------|---------|---------|---------|---------|---------|
G|-%-------|-%-------|-%-------|-%-------|-%-------|-%-------|-%-------|-%-------|-%-------|
D|-%-------|-%-------|-%-------|-%-------|-%-------|-%-------|-%-------|-%-------|-%-------|
A|---------|---------|---------|---------|---------|---------|---------|---------|---------|
E|---------|---------|---------|---------|---------|---------|---------|---------|---------|


E|---------|---------|---------|---------|---------|---------|---------|---------|---------|
B|---------|---------|---------|---------|---------|---------|---------|---------|---------|
G|-%-------|-%-------|-%-------|-%-------|-%-------|-%-------|-%-------|-%-------|-%-------|
D|-%-------|-%-------|-%-------|-%-------|-%-------|-%-------|-%-------|-%-------|-%-------|
A|---------|---------|---------|---------|---------|---------|---------|---------|---------|
E|---------|---------|---------|---------|---------|---------|---------|---------|---------|


E|---------|---------|---------|---------|---------|---------|---------|---------|---------|
B|---------|---------|---------|---------|---------|---------|---------|---------|---------|
G|-%-------|-%-------|-%-------|-%-------|-%-------|-%-------|-%-------|-%-------|-%-------|
D|-%-------|-%-------|-%-------|-%-------|-%-------|-%-------|-%-------|-%-------|-%-------|
A|---------|---------|---------|---------|---------|---------|---------|---------|---------|
E|---------|---------|---------|---------|---------|---------|---------|---------|---------|


E|---------|---------|---------|---------|---------|---------|---------|---------|---------|
B|---------|---------|---------|---------|---------|---------|---------|---------|---------|
G|-%-------|-%-------|-%-------|-%-------|-%-------|-%-------|-%-------|-%-------|-%-------|
D|-%-------|-%-------|-%-------|-%-------|-%-------|-%-------|-%-------|-%-------|-%-------|
A|---------|---------|---------|---------|---------|---------|---------|---------|---------|
E|---------|---------|---------|---------|---------|---------|---------|---------|---------|


E|---------|---------|---------|---------|---------|---------|---------|---------|---------|
B|---------|---------|---------|---------|---------|---------|---------|---------|---------|
G|-%-------|-%-------|-%-------|-%-------|-%-------|-%-------|-%-------|-%-------|-%-------|
D|-%-------|-%-------|-%-------|-%-------|-%-------|-%-------|-%-------|-%-------|-%-------|
A|---------|---------|---------|---------|---------|---------|---------|---------|---------|
E|---------|---------|---------|---------|---------|---------|---------|---------|---------|


E|---------|---------|---------|---------|---------|---------|---------|---------|---------|
B|---------|---------|---------|---------|---------|---------|---------|---------|---------|
G|-%-------|-%-------|-%-------|-%-------|-%-------|-%-------|-%-------|-%-------|-%-------|
D|-%-------|-%-------|-%-------|-%-------|-%-------|-%-------|-%-------|-%-------|-%-------|
A|---------|---------|---------|---------|---------|---------|---------|---------|---------|
E|---------|---------|---------|---------|---------|---------|---------|---------|---------|


E|---------|---------|---------|---------|---------|---------|---------|---------|---------|
B|---------|---------|---------|---------|---------|---------|---------|---------|---------|
G|-%-------|-%-------|-%-------|-%-------|-%-------|-%-------|-%-------|-%-------|-%-------|
D|-%-------|-%-------|-%-------|-%-------|-%-------|-%-------|-%-------|-%-------|-%-------|
A|---------|---------|---------|---------|---------|---------|---------|---------|---------|
E|---------|---------|---------|---------|---------|---------|---------|---------|---------|


E|---------|---------|---------|-------12-----14---15---|-15----14---15---17----15----|
B|---------|---------|---------|------------------------|-----------------------------|
G|-%-------|-%-------|-%-------|-%----------------------|-----------------------------|
D|-%-------|-%-------|-%-------|-%----------------------|-----------------------------|
A|---------|---------|---------|------------------------|-----------------------------|
E|---------|---------|---------|------------------------|-----------------------------|


E|-12-----14---15---12----|-15-----15---17----------|-15----15---15---17----------|
B|------------------------|-------------------------|-----------------------------|
G|------------------------|--------------------%----|-----------------------%-----|
D|------------------------|--------------------%----|-----------------------%-----|
A|------------------------|-------------------------|-----------------------------|
E|------------------------|-------------------------|-----------------------------|


E|-15----15---15---17----17----|-15----12-----------|---------|-------12-----14---15---|
B|-----------------------------|--------------------|---------|------------------------|
G|-----------------------------|--------------%-----|-%-------|-%----------------------|
D|-----------------------------|--------------%-----|-%-------|-%----------------------|
A|-----------------------------|--------------------|---------|------------------------|
E|-----------------------------|--------------------|---------|------------------------|


E|-15----14---15---17----15----|-12-----14---15---12----|-15-----15---17----------|
B|-----------------------------|------------------------|-------------------------|
G|-----------------------------|------------------------|--------------------%----|
D|-----------------------------|------------------------|--------------------%----|
A|-----------------------------|------------------------|-------------------------|
E|-----------------------------|------------------------|-------------------------|


E|-15----15---15---17----------|-15----15---15---17----17----|-15----12-----------|
B|-----------------------------|-----------------------------|--------------------|
G|-----------------------%-----|-----------------------------|--------------%-----|
D|-----------------------%-----|-----------------------------|--------------%-----|
A|-----------------------------|-----------------------------|--------------------|
E|-----------------------------|-----------------------------|--------------------|


E|---------|-------15-----15---14---|-15----15---17---17----19----|-15-----15---14---12----|
B|---------|------------------------|-----------------------------|------------------------|
G|-%-------|-%----------------------|-----------------------------|------------------------|
D|-%-------|-%----------------------|-----------------------------|------------------------|
A|---------|------------------------|-----------------------------|------------------------|
E|---------|------------------------|-----------------------------|------------------------|


E|-15-----15---17----------|-12----12---14---15----------|-12----10---12---14----14----|
B|-------------------------|-----------------------------|-----------------------------|
G|--------------------%----|-----------------------%-----|-----------------------------|
D|--------------------%----|-----------------------%-----|-----------------------------|
A|-------------------------|-----------------------------|-----------------------------|
E|-------------------------|-----------------------------|-----------------------------|


E|-12----12-----------|---------|-------12-----14---15---|-15----14---15---17----15----|
B|--------------------|---------|------------------------|-----------------------------|
G|--------------%-----|-%-------|-%----------------------|-----------------------------|
D|--------------%-----|-%-------|-%----------------------|-----------------------------|
A|--------------------|---------|------------------------|-----------------------------|
E|--------------------|---------|------------------------|-----------------------------|


E|-12-----14---15---12----|-15-----15---17----------|-15----15---15---17----------|
B|------------------------|-------------------------|-----------------------------|
G|------------------------|--------------------%----|-----------------------%-----|
D|------------------------|--------------------%----|-----------------------%-----|
A|------------------------|-------------------------|-----------------------------|
E|------------------------|-------------------------|-----------------------------|


E|-15----15---15---17----17----|-15----12-----------|---------|---------|---------|
B|-----------------------------|--------------------|---------|---------|---------|
G|-----------------------------|--------------%-----|-%-------|-%-------|-%-------|
D|-----------------------------|--------------%-----|-%-------|-%-------|-%-------|
A|-----------------------------|--------------------|---------|---------|---------|
E|-----------------------------|--------------------|---------|---------|---------|


E|---------|---------|---------|---------|---------|---------|---------|---------|---------|
B|---------|---------|---------|---------|---------|---------|---------|---------|---------|
G|-%-------|-%-------|-%-------|-%-------|-%-------|-%-------|-%-------|-%-------|-%-------|
D|-%-------|-%-------|-%-------|-%-------|-%-------|-%-------|-%-------|-%-------|-%-------|
A|---------|---------|---------|---------|---------|---------|---------|---------|---------|
E|---------|---------|---------|---------|---------|---------|---------|---------|---------|


E|---------|---------|---------|---------|---------|---------|---------|---------|---------|
B|---------|---------|---------|---------|---------|---------|---------|---------|---------|
G|-%-------|-%-------|-%-------|-%-------|-%-------|-%-------|-%-------|-%-------|-%-------|
D|-%-------|-%-------|-%-------|-%-------|-%-------|-%-------|-%-------|-%-------|-%-------|
A|---------|---------|---------|---------|---------|---------|---------|---------|---------|
E|---------|---------|---------|---------|---------|---------|---------|---------|---------|

    

Nézd meg a videót és ismerd meg a leggyorsabb utat, hogyan tanulhatod meg kedvenc számaid gitáron!